Popraw Opracowanie
Transponuj
0

Zapal świeczkę Dżem

Tekst piosenki i chwyty na gitarę

  • Chwyty na gitarę Maćkowicz
    104 ulubione
Na kiepskich zdjęciach okruchy dawnych dni      a C D
Czyjaś twarz, zapomniana twarz                  a C D
W pamięci zakamarkach wciąż rozbrzmiewa śmiech  a C D F G
Czyjaś twarz, zapamiętana                       a C D

Mijają dni, ludzie, natury rytm
Wciąż nowych masa przyjaciół, starych przykrył kurz
Dziewczyny ciągle piękne, lecz w pamięci tkwi
Ten pierwszy dzień, najgorętszy z dni

Ref:
Zapal świeczkę                                  F G
Za tych, których zabrał los                     a C F
Światło w oknie                                 G a

Ludzi dobrych i złych wciąż przynosi wiatr
Ludzi dobrych i złych wciąż zabiera mgła
I tylko ty masz tą niezwykłą moc
By zatrzymać ich, by dać wieczność im

Pomyśl choć przez chwilę, podaruj uśmiech swój
Tym, których napotkałeś na jawie i wśród snów
A może ktoś skazany na samotność
Ogrzeję się tym ciepłem i zapomni o kłopotach

Ref: Zapal świeczkę ...



e|----------------------------------------------------------------------------------------------------|
H|-----------------------------------------1---------------3----------------------------------------|
G|-----------2--------------0--------------------------2------------------0-------------------|
D|-------2-------------2--------0h2---------------0------------------0h2------2p0------------|
A|---0------------3-----------------------------------------------------------------------3--------|
E|---------------------------------------------------------------------------------------------------|


Między refrenem i zwrotką:
e|-------------------------------------------|
H|--------------3p2----------3------3-----|                                                                                                             G|-----------2-------2-------0------2----|    x2
D|---------2-----------------2------0----|
A|------0--------------------3------0----|
E|------------------------------------------|

Na koniec:

e|---------------------------------------------------|
H|--------------3p2----------3------3------2------|
G|-----------2-------2-------0------2------2-----|
D|---------2-----------------2------0------2-----|
A|------0--------------------3------0------0-----|
E|---------------------------------------------------|


Oceń to opracowanie
Ocena czytelników: Dobry+ 7 głosów

Kontrybucje
Maćkowicz
Pan Wywrotek
Redakcja
  • Teledysk

Współpraca

W wiki-śpiewniku Wywroty możesz poprawiać istniejące opracowania i zdobywać punkty karmy. Zapoznaj się z zasadami kontrybucji.
anonim
Znaleziono 1 komentarz.