0
0

Człowiek z liściem Elektryczne Gitary

Tekst piosenki i chwyty na gitarę

  • Chwyty na gitarę Początkujący
    421 ulubionych
Intro: | G | F | C F | C | x2

Wasiadł do autobusu człowiek z eliściem na głowie
NGikt go nie poratuje nDikt mu nic nie powie
TFylko się każdy Ggapi, tylko się CkaFżdy Cgapi i nEic

Saiedzi w autobusie człowiek z eliściem na głowie
OG liściu w swych rzadkich włosach Dnieprędko się dowie
TFylko się w okno Ggapi, tylko się w CokFno Cgapi i nEic

Ref.:
Udważaj to nie Gchmury - to CpaFłac kCultury
GLiście lecą z drzew, Fliście lecą z drzew C  F  C 

Ia tak siedzi w autobusie człowiek z eliściem na głowie
NGikt go nie poratuje, Dnikt mu nic nie powie
TFylko się każdy Ggapi, tylko się CkaFżdy Cgapi i nEic

Wsaiadł drugi podobny, nad człoewiekiem się zlitował
TGamten się pogłaskał w główkę Dliścia sobie schował
BFo ja mówi jestem z Glasu, bo ja mówi CjesFtem Cz lasu i jE

Ref.:
Udważaj to nie Gchmury - to CpaFłac kCultury
GLiście lecą z drzew, Fliście lecą z drzew C  F  C 

zakończenie można zagrać jak intro


solo:
-|-a 0------------e 0-1-0---0---|-G-----------D--0-0-------|-F------G-------|
-|----------1-3-------3-----|-3--------1-3-----3-1-3-|-1------------|
-|-----2--2-----------------|-----0------------------|-------2--0---|
-|--------------------------|------------------------|--------------|
-|--------------------------|------------------------|--------------|
-|--------------------------|------------------------|--------------|

-|-C-----F---C3-----|
-|-3--1-------5/-|
-|---------------|
-|---------------|
-|---------------|
-|---------------|

-|----------------10----10b11b12-------------------10----10b12r10----------
-|-------13-10-13----13-------------------13-10-13----13----------13-10-13-
-|-12b14----------------------------12b14----------------------------------
-|-------------------------------------------------------------------------
-|-------------------------------------------------------------------------
-|-------------------------------------------------------------------------


-|-----------10-12//--17-15--15b17r15--12-10-----------
-|--13-10-13-----------------------------------13------
-|-----------------------------------------------------
-|-----------------------------------------------------
-|-----------------------------------------------------
-|-----------------------------------------------------


Oceń to opracowanie
Ocena czytelników: Niczego sobie 44 głosy
anonim