0
0

Człowiek z liściem Elektryczne Gitary

Tekst piosenki i chwyty na gitarę

  • Chwyty na gitarę Początkujący
    149 ulubionych
Intro: | G | F | C F | C | x2

 a                            e
Wsiadł do autobusu człowiek z liściem na głowie
 G                    D
Nikt go nie poratuje nikt mu nic nie powie
 F              G               C F   C
Tylko się każdy gapi, tylko się każdy gapi i nic

 a                            e
Siedzi w autobusie człowiek z liściem na głowie
 G                                D
O liściu w swych rzadkich włosach nieprędko się dowie
 F               G                 C F  C
Tylko się w okno gapi, tylko się w okno gapi i nic

Ref.:
 F            G           C F    C
Uważaj to nie chmury - to pałac kultury
G                    F                   C F C
Liście lecą z drzew, liście lecą z drzew

 a                                  e
I tak siedzi w autobusie człowiek z liściem na głowie
 G                    D
Nikt go nie poratuje, nikt mu nic nie powie
 F              G               C F   C
Tylko się każdy gapi, tylko się każdy gapi i nic

  a                           e
Wsiadł drugi podobny, nad człowiekiem się zlitował
 G                            D
Tamten się pogłaskał w główkę liścia sobie schował
 F                  G                C  F   C
Bo ja mówi jestem z lasu, bo ja mówi jestem z lasu i już

Ref.:
Uważaj, to nie chmury...


zakończenie można zagrać jak intro


solo:
   a            e             G          D             F     G
-|-0------------0-1-0---0---|--------------0-0-------|--------------|
-|----------1-3-------3-----|-3--------1-3-----3-1-3-|-1------------|
-|-----2--2-----------------|-----0------------------|-------2--0---|
-|--------------------------|------------------------|--------------|
-|--------------------------|------------------------|--------------|
-|--------------------------|------------------------|--------------|

   C    F  C
-|---------3-----|
-|-3--1-------5/-|
-|---------------|
-|---------------|
-|---------------|
-|---------------|

-|----------------10----10b11b12-------------------10----10b12r10----------
-|-------13-10-13----13-------------------13-10-13----13----------13-10-13-
-|-12b14----------------------------12b14----------------------------------
-|-------------------------------------------------------------------------
-|-------------------------------------------------------------------------
-|-------------------------------------------------------------------------


-|-----------10-12//--17-15--15b17r15--12-10-----------
-|--13-10-13-----------------------------------13------
-|-----------------------------------------------------
-|-----------------------------------------------------
-|-----------------------------------------------------
-|-----------------------------------------------------

Oceń to opracowanie
Ocena czytelników: Dobry 21 głosów

Dodaj własne wykonanie

Umiesz zagrać tą piosenkę? Nagraj swoje wykonanie i pokaż innym jak grasz! Konkurs Morskie Opowieści
anonim