Wakacyjny Konkurs Śpiewnikowy
Wakacyjny Konkurs Śpiewnikowy
Popraw Opracowanie Usuń
Transponuj
0

Extraordinary girl Green Day

Tekst piosenki i chwyty na gitarę

A        D             A
1. She's an Extraordinary girl

A         D      A
in an ordinary world

        G                 A
And she can't seem to get away


E-------------------------|
B-------------------------|
G--6-6-4-6-6-4-6-7-6-4-6--|
D-------------------------|
A-------------------------|
E-------------------------|


2.


   Gitara 1:

    A        D               A        D               A        G       A
E|--------------------------------------------------------------------------------------------|
B|--------------------------------------------------------------------------------------------|
G|-----------7------------------------7-------------------------------------------------------|
D|--7--------7---------------7--------7---------------7--------5-------7----------------------|
A|--7--------5---------------7--------5---------------7--------5-------7----------------------|
E|--5------------------------5------------------------5--------3-------5----------------------|
 |                                                                                            |
 |                                                                                            |
 | Gitara 2:                                                                                  |
 |                                                                                            |
E|--------------------------------------------------------------------------------------------|
B|--------------------------------------------------------------------------------------------|
G|--9-9--7-9-10-10~~--12-10--9-9--7-9-10-10~~--12-10--9-9--7-9-7-7-9-7-6-6-4-6-6-4-6-7-6-4-6--|
D|--------------------------------------------------------------------------------------------|
A|--------------------------------------------------------------------------------------------|
E|--------------------------------------------------------------------------------------------|
   He Lacks the courage in his mind  Like a child left behind  Like a pet left in the rain


Ref.:

Fis           D       E D
She's all alone again

Fis(2)            D         E  D
Wiping the tears from her eyes

D              E
Some days she feels like dying

D           d
She gets so sick of crying


   A        D               A        D
E----------------------------------------------------|
B----------------------------------------------------|
G--9-9--7-9-10-10~~--12-10--9-9--7-9-10-10~~--12-10--|
D----------------------------------------------------|
A----------------------------------------------------|
E----------------------------------------------------|



   A             D           A
3. She sees the mirror of herself

A          D         A
And image she wants to sell

     G                A
To anyone willing to buy


E-------------------------|
B-------------------------|
G--6-6-4-6-6-4-6-7-6-4-6--|
D-------------------------|
A-------------------------|
E-------------------------|


4.


   Gitara 1:

    A        D               A        D               A        G       A
E|--------------------------------------------------------------------------------------------|
B|--------------------------------------------------------------------------------------------|
G|-----------7------------------------7-------------------------------------------------------|
D|--7--------7---------------7--------7---------------7--------5-------7----------------------|
A|--7--------5---------------7--------5---------------7--------5-------7----------------------|
E|--5------------------------5------------------------5--------3-------5----------------------|
 |                                                                                            |
 |                                                                                            |
 | Gitara 2:                                                                                  |
 |                                                                                            |
E|--------------------------------------------------------------------------------------------|
B|--------------------------------------------------------------------------------------------|
G|--9-9--7-9-10-10~~--12-10--9-9--7-9-10-10~~--12-10--9-9--7-9-7-7-9-7-6-6-4-6-6-4-6-7-6-4-6--|
D|--------------------------------------------------------------------------------------------|
A|--------------------------------------------------------------------------------------------|
E|--------------------------------------------------------------------------------------------|
   He steals the image in her kiss From her heart's apocalypse From the one called whatsername



Ref.:

Fis           D       E D
She's all alone again

Fis(2)             E       D     E  D
Wiping the tears from her eyes

D              E
Some days she feels like dying

D           d
She gets so sick of crying



Solo:


   Gitara 1:

    A        D               A        D               A        G       A
E|--------------------------------------------------------------------------------------------|
B|--------------------------------------------------------------------------------------------|
G|-----------7------------------------7-------------------------------------------------------|
D|--7--------7---------------7--------7---------------7--------5-------7----------------------|
A|--7--------5---------------7--------5---------------7--------5-------7----------------------|
E|--5------------------------5------------------------5--------3-------5----------------------|
 |                                                                                            |
 |                                                                                            |
 | Gitara 2:                                                                                  |
 |                                                                                            |
E|--------------------------------------------------------------------------------------------|
B|--------------------------------------------------------------------------------------------|
G|--9-9--7-9-10-10~~--12-10--9-9--7-9-10-10~~--12-10--9-9--7-9-7-7-9-7-6-6-4-6-6-4-6-7-6-4-6--|
D|--------------------------------------------------------------------------------------------|
A|--------------------------------------------------------------------------------------------|
E|--------------------------------------------------------------------------------------------|



   Gitara 1:

    A        D               A        D               A        G       A
E|--------------------------------------------------------------------------------------------|
B|--------------------------------------------------------------------------------------------|
G|-----------7------------------------7-------------------------------------------------------|
D|--7--------7---------------7--------7---------------7--------5-------7----------------------|
A|--7--------5---------------7--------5---------------7--------5-------7----------------------|
E|--5------------------------5------------------------5--------3-------5----------------------|
 |                                                                                            |
 |                                                                                            |
 | Gitara 2:                                                                                  |
 |                                                                                            |
E|--------------------------------------------------------------------------------------------|
B|--------------------------------------------------------------------------------------------|
G|--9-9--7-9-10-10~~--12-10--9-9--7-9-10-10~~--12-10--9-9--7-9-7-7-9-7-6-6-4-6-6-4-6-7-6-4-6--|
D|--------------------------------------------------------------------------------------------|
A|--------------------------------------------------------------------------------------------|
E|--------------------------------------------------------------------------------------------|



Ref.:

Fis           D       E D
She's all alone again

Fis(2)             E       D     E  D
Wiping the tears from her eyes

D              E
Some days she feels like dying

D              E
Some days it's not worth trying

D                E
Now that they've pulled the fun in

D           d
She gets so sick of crying






  Gitara 1:

    A        D               A        D
E|----------------------------------------------------| |
B|----------------------------------------------------| |
G|-----------7------------------------7---------------|o|
D|--7--------7---------------7--------7---------------|o|
A|--7--------5---------------7--------5---------------| |
E|--5------------------------5------------------------| |
 |                                                    | |
 |                                                    | |  (2x)
 | Gitara 2:                                       | |
 |                                                    | |
E|----------------------------------------------------| |
B|----------------------------------------------------| |
G|--9-9--7-9-10-10~~--12-10--9-9--7-9-10-10~~--12-10--|o|
D|----------------------------------------------------|o|
A|----------------------------------------------------| |
E|----------------------------------------------------| |
   She's An Extraordinary girl   An Extraordinary girl
   An Extraordinary girl  An Extraordinary girl




   A
E---------------------------|			    E-----------|
B---------------------------|			    B-----------|
G--9~~-7-9-10-10~~-12-10-9--|   (2x):             G--7h9p6~~--|
D---------------------------|                       D-----------|
A---------------------------|			    A-----------|
E---------------------------|			    E-----------|

A,D,G,F#,E,F#(2),Dm
Oceń to opracowanie

Kontrybucje
Gepuś

Wakacyjny Konkurs Śpiewnikowy

Pula nagród w konkursie ponad 10.000 zł!
Przysyłaj opracowania piosenek i zdobądź bony na zakupy w sklepie muzycznym.
Zapoznaj się z regulaminem konkursu.
anonim