0
0

Nightrain Guns N' Roses

Tekst piosenki i chwyty na gitarę

  • Chwyty na gitarę Angie
Loaded like a freight train
Flyin' like an aeroplane
Feelin' like a space brain
One more time tonight

Well I'm a west coast struttin'
One bad mother
Got a rattlesnake suitcase
Under my arm
Said I'm a broken machine
Been drinkin' gasoline
An honey you can make my motor hum
I got one chance left
In a nine live cats
I got a dog eat dog sly smile
I got a Molotov cocktail with a match to go
I smoke my cigarette with style
An I can tell you honey
You can make my money tonight

Wake up late honey put on your clothes
Take your credit card to the liquor store
That's one for you and two for me by tonight
I'll be
Loaded like a freight train
Flyin' like an aeroplane
Feelin' like a space brain
One more time tonight

I'm on the nightrain
Bottoms up
I'm on the nightrain
Fill my cup
I'm on the nightrain
Ready to crash and burn
I never learn
I'm on the nightrain
I love that stuff
I'm on the nightrain
I can never get enough
I'm on the nightrain
Never to return - no

Loaded like a freight train
Flyin' like an aeroplane
Speedin' like a space brain
One more time tonight

I'm on the nightrain
An I'm lookin' for some
I'm on the nightrain
So I can leave this slum
I'm on the nightrain
And I'm ready to crash an'burn
Nightrain
Bottoms up
I'm on the nightrain
Fill my cup
I'm on the nightrain
Whoa yeah
I'm on the nightrain
Love that stuff
I'm on the nightrain
An I can never get enough
Ridin' the nightrain
I guess I
I guess, I guess, I guess I never learn
On the nightrain
Float me home
Ooh I'm on the nightrain
Ridin' the nightrain
Never to return
VERSION 1

Tune 1/2note down.
|---------------------------------------------------------------------------|
|---------------------------------------------------------------------------|
|-2------12-12-11-x-11-9---9-9-7-x-7-5-7---7-7-5-x-5-4-5-4-2-0-2------------|
|-2------12-12-11-x-9--9---7-7-7-x-5-3-5---5-5-5-x-3-2-3-2-0-0-2/7p.harm~~~~|
|---------------------------------------------------------------------------|
|---------------------------------------------------------------------------|

|---------------------------------------------------------------------------|
|---------------------------------------------------------------------------|
|--------12-12-11-x-11-9---9-9-7-x-7-5-7---7-7-5-x-5-4-5-4-2-0-2------------|
|--------12-12-11-x-9--9---7-7-7-x-5-3-5---5-5-5-x-3-2-3-2-2-0-2------------|
|---------------------------------------------------------------------------|
|---------------------------------------------------------------------------|S.
and then it'goes on A and G (5or7) chord with pinch harmonics.

[fill] An I can tell you honey,You can make my money tonight.
p.harmonic.
|----------------------------------------|----------------------------------|
|----------------------------------------|----------------------------------|
|---12-12-12-11-11-9-x-x-9-7-7-5-0-2-----|----------------------------------|
|---12-12-12-11-9--9-x-x-7-7-5-5-0-2///--|--7~~5~~7^fb-5~~------------------|
|----------------------------------------|----------------------------------|
|----------------------------------------|----------------------------------|S.



VERSION 2
1/2 Dropped Tuning

Intro:
Rhy. Fig. 1
|--3---3--2--2--3--|--(3)----3--|--3--3--3--1--|--(1)----3--|
|--5---5--3--3--5--|--(5)----5--|--5--3--3--1--|--(1)----3--|
|--2---2--2--2--5--|--(5)----5--|--5--4--4--2--|--(2)----4--|
|------------------|------------|--------------|---------5--|
|------------------|------------|--------------|------------|
|------------------|------------|--------------|------------|

End Rhy. Fig. 1
G5 A5
|-------------------------------|
|--3----------------------------|
|--4--4--5--4--5--4---2--0--2--o| Here's the catchy little intro riff.
|--5-----5--5--5--5---2--0--2--o| Play it twice through.
|---------------------------0---|
|-------------------------------|

Verse:
Rhy. Fig. 2 End Rhy. Fig. 2 End on:
A5 (NC) A5 (NC) A5 A5 D
|------------------------------------------------------||--2----| Slash & Izzy
|------------------------------------------------------||--3----| both do lots
|--2--2--2--------2--2--2--------2--2--2-----2--2--2--o||--2----| of variations
|--2--2--2--------2--2--2--------2--2--2--x--2--2--2--o||--0----| to this riff
|--0--0--0--------0--0--0--------0--0--0--x--0--0--0---||-------| so just im-
|-----------0--3-----------0--3------------------------||-------| provise a bit.
I'm a west-cost...
A5
|---3----------------------|--------------------------|
|---5----7--5--7--5--5--3--|--5----3------------------|
|--------7--5--7--5--5--4--|--5----4----5------------o|
|--------------------------|---------------7--5--/7--o|
|--------------------------|---------------------/7---|
|--------------------------|---------------------/5---|
can tell you honey...

2nd Verse:
Rhy. Fig. 2
End Rhy. Fig. 2 w/Rhy. Fig. 1
Play G5 rather than A5 as the very last chord in Rhy. Fig. 1.

Chorus:
Rhy. Fig. 3a End Rhy. Fig. 3a
|--------------------------------------------------|
|--------------------------------------------------|
|-------------------------------------------------o| Listen to the recording
|--7----------------------7-----------------------o| for the riff changes...
|--7----------------------7------------------------|
|--5----5--8--5--8--5--3/-5----5--8--5--8--5--3\---|
Nightrain, bottom's up...

Rhy. Fig. 3b End Rhy. Fig. 3b
|--------------------------------------------------|
|--------------------------------------------------|
|-------------------------------------------------o|
|--3----------------------3-----------------------o|
|--3-------3--2--3--2--0--3-------3--2--3--2--0----|
|--1----1-----------------1----1-------------------|
...burn, I never learn...

Outro Chorus:
-Rhy. Fig. 3a
-Rhy. Fig. 3b
-Rhy. Fig. 3c

Rhy. Fig. 3c End Rhy. Fig. 3c
|------------------------------------------------|
|------------------------------------------------|
|------------------------------------------------| Again, listen to the
|--5----------------------5----------------------| recording for the riff
|--5-------3--2--3--2--0--5-------3--2--3--2-----| changes!
|--3----3-----------------3----3--------------3--|



VERSION 3

Intro for Slash
----------3--(3)--3--2--0-------0--(0)------0--0--0--------------
---2------------------------7s--5--(5)--3s--5--3--3--1--(1)------
---2-------------------------------------------------------------
---0-------------------------------------------------------------
-----------------------------------------------------------------
-----------------------------------------------------------------


------0--0-------------------------------------------------------
--1s--3--3--1--1--0--1--0----------------------------------------
---------------------------2--0--2--(2)--------------------------
-----------------------------------------------------------------
-----------------------------------------------------------------
-----------------------------------------------------------------


Intro for Izzy
-----------------------------------------------------1--(1)------
--------------9--9----7--7---5--(5)---5--5---3--3----1--(1)------
--------------8--8----7--7---5--(5)---5--5---4--4----2--(2)------
---7--(7)--0--7--7----7--7---5--(5)---5--5---5--5--3-------------
---7--(7)--------------------------------------------------------
---5--(5)--------------------------------------------------------



--------3--3-----------------------------------------------------
--------3--3--3--3--3--3--3--2--0--2-----------------------------
--------0--0--4--5--4--5--4--2--0--2-----------------------------
--3s-5--5--5--5--5--5--5--5--0-----------------------------------
-----------------------------------------------------------------
-----------------------------------------------------------------


The solo
-----------------7-7--|--------------------------|----------------------------|-------------(b)---10--|
--7-----7-----7--7-7--|----7-----7-----7--7---9--|-(9)hb*---9hb*---9hb*--7--9-|-7--9--7~~~--(r)-------|
-----9fb---9fb--------|-9fb---9fb---9fb-------9--|-(9)hb*---9hb*---9hb*--7--9-|-7--9--7~~~--(e)-------|
----------------------|--------------------------|----------------------------|-------------(a)-------|
----------------------|--------------------------|----------------------------|-------------(k)-------|
----------------------|--------------------------|----------------------------|-----------------------|
* Play the bend up and down again


---(10)----9--7-------------------|--------------------------------|---------------------------|-----------------------|
-----------------10--9--7---------|--------------------------------|---------------------------|-----------------------|
---------------------------9--9hb-|-(9)-(9)p--7--7--9--7-----------|---------------------------|-----------------------|
----------------------------------|-----------------------9--7--9s-|-7--7s--5--5s--4--4s--2--2-|-0--4--5--6s--7--------|
----------------------------------|--------------------------------|---------------------------|----4--5--6s--7--------|
----------------------------------|--------------------------------|---------------------------|----2--3--4s--5--------|



-10-----------------10--|--(10)--10----------|-----------9--12fb--12fb----------|------------------------------------10-|
-10--------10---10--10--|--(10)--10---10-----|-------10-----------12hb---10--12-|-12fb--(12)p-10---------------------10-|
-9fb--9fb--9fb*-7---9fb-|--(9)---9fb*--7s-11~~~(11)-----------------------------|-----------------11--11~~~--11---------|
------------------------|--------------------|----------------------------------|--------------------------------12-----|
------------------------|--------------------|----------------------------------|---------------------------------------|
------------------------|--------------------|----------------------------------|---------------------------------------|
* Play bend up and down


-(10)--10--------------10----13s-|-14--10-------------------------------------------|
-(10)--10--------------10----12s-|-13--10--------------------------------------17fb-|
-----------12--10--11------------|---------12fb*--(12)p--10--12--10h--11p--0--------|
---------------------------------|-----------------------------------------0--------|
---------------------------------|--------------------------------------------------|
---------------------------------|--------------------------------------------------|
* play bend up and down


-------14-------------------------------------------------|
-(17)------17p-14-----------------------------------------|
------------------16fb*-(16)*-14----16p14-----------------|
---------------------------------16-------16-14-----------|
------------------------------------------------16-14s-13-|
----------------------------------------------------------|



----------------------------------|---------------|-----------------------------|---------------------------|
----------------------------------|--7~~--7----6s-|-7~~---7-------7s--9---10~~--|-(10)~~---9---9s--7---5~~--|
----------------------------------|---------------|-----------------------------|---------------------------|
----------------------------------|--7~~--7----6s-|-7~~---7---0---7s--9---11~~--|-(11)~~---9---9s--7---6~~--|
-(13)-------------13----12---(12)-|---------------|-----------------------------|---------------------------|
------------14-14----14-----------|---------------|-----------------------------|---------------------------|



--------------------------|
--(5)---5s--4s--2~~-------|
-----------------------4--|
--(6)---6s--4s--2~~-------|
--------------------------|
--------------------------|



--------4--5------------------------|-----------------------------------------------|
--------------5fb*------(5)---2--5--|-----------------------------------------------|
-(4)fb------------------------------|--4fb*--(4)p--2--4----2----4fb--4p--2----------|
------------------------------------|--------------------------------------4---4fb*-|
------------------------------------|-----------------------------------------------|
------------------------------------|-----------------------------------------------|
* Play bend up and down


------------------------------|-------------------------|
------------------------------|-------------------------|
-(release bend slowly)--------|-------------------------|
--(4)------------(4)s--2fb*---|--(2)~~~~~~~~~-----------|
------------------------------|-------------------------|
------------------------------|---------------0--1--2~~-|



--------------------------|---------0--------0---1---2-|-(2)------2-----0--2---1--0--|
--------------------------|---------0--------0---1---2-|-(2)------2-----0--2---1--0--|
--------------------------|----------------------------|-----------------------------|
--------------------------|----------------------------|-----------------------------|
--------------------------|----------------------------|-----------------------------|
--(2)~~~~~----x--2--1--0--|--(0)--x--------------------|-----------------------------|



-(0)------------| Those of you who are wondering where
-(0)------------| the slide at the end is, it's tagged
----------------| on to the rythm riff of the last part
----------------| of the solo and played by the rythm
----------------| guitarist, namely Izzy. See below....
----------------|


This is the rythm part for the end of the solo, and don't say
we ain't good to you guys >:0)
-----------------------------|-----------2-----------------|----------0-----------------|
-----------------------------|-----------2-----------------|----------0-----------------|
-----------------------------|-----------------------------|----------------------------|
-----------------------------|-----------------------------|----------------------------|
------------------2---3---4--|--(4)---4-----4--4--4--3--2--|--(2)--2-----2--2--2--3--4--|
------------------0---1---2--|--(2)---2-----2--2--2--1--0--|--(0)--0-----0--0--0--1--2--|



----------2-----------------|----------0--------------|
----------2-----------------|----------0--------------|
----------------------------|-------------------------|
----------------------------|-------------------------|
--(4)--4-----4--4--4--3--2--|--(2)--2-----2--2--3--4--|
--(2)--2-----2--2--2--1--0--|--(0)--0-----0--0--1--2--|



----------2-----------------|----------0---------|
----------2-----------------|----------0---------|
----------------------------|--------------------|
----------------------------|--------------------|
--(4)--4-----4--4--4--3--2--|--(2)--2------------|
--(2)--2-----2--2--2--1--0--|--(0)--0------------|



-----------------|--------------------|
--7s----Long steady slide----14----8--| Cut to rythm intro riff
--7s----between the 2--------14----9--|
--7s----postions-|-----------14----7--|
-----------------|--------------------|
-----------------|--------------------|



Oceń to opracowanie
Kontrybucje:
Angie
Angie
anonim