0
0

Out Ta Get Me Guns N' Roses

Tekst piosenki i chwyty na gitarę

  • Chwyty na gitarę Angie
Been hidin' out and layin' low -
It's nothing new ta me
Well you can always find a place to go
If you can keep your sanity
They break down the doors
And they rape my rights but
They won't touch me
They scream and yell
And fight all night
You can't tell me
I lose my head
I close my eyes
They won't touch me
'Cause I got somethin'
I been buildin' up inside
For so fuckin' long

They're out to get me
They won't catch me
I'm innocent
They won't break me

Sometimes it's easy to forget where you're goin'
Sometimes it's harder to leave
And everytime you think you know just what you're doin'
That's when your troubles exceed
They push me in a corner
Just to get me to fight
But they won't touch me
They preach and yell
And fight all night
You can't tell me
I lose my head
I close my eyes
They won't touch me
'Cause I got somethin'
I been buildin' up inside
I'm already gone

They're out to get me
They won't catch me
I'm innocent
They won't break me

Some people got a chip on their shoulder
An some would say it was me
But I didn't buy that fifth of whiskey
That you gave me
So I'd be quick to disagree

They're out to get me
They won't catch me
I'm innocent
They won't break me

They're out to get me
They won't catch me
I'm innocent
So you can
Suck me
Take that one to heart
VERSION 1

Half step tuning

Intro: Guitar 1 Guitar 2
G5 C5 B5
|----------------------------| |--------| This is an over-dub
|----------------------------| |--------| after the intro riff
|------------------5---3----*| |--------| has been played once.
|---5----5---------5---3----*| |--10/3--| Then it starts
|---5----5--x--5---3---1-----| |--10/3--| playing the intro riff.
|---3\6--3--x--3-------------| |--10/3--|

This little riff the is the intro riff, and is also used thought the chorus.
If you think it sounds better, you can slide the whole power chord, instead of
just sliding the G root to an A#, I don't know, play around with it and get the
feel.

Intro Solo: Slash!
|---13^-14^/\/\/\/\-14-16^-16^16^16^16^-----------------------------------------12\-|
|---------------------------------------13-15/\/\/\/\---------------------------12\-|
|----------------------------------------------------18p16h18p16h18p16h18-15--------|
|-----------------------------------------------------------------------------------|
|-----------------------------------------------------------------------------------|
|-----------------------------------------------------------------------------------|

Verse
G5
|-------------------------------------------------|
|-------------------------------------------------|
|-------------------------------------------------|
|--5----------------------------------5--------5--|
|--5----------------------------------5--------5--|
|--3-3-3-3-3-3-3-3-3-3-3-3-3-3-3-3-3--3-\-6-/--3--|
P.M. ----------------------------|
Been hidin' out and layin' low...

Pre-Chorus:
D C G F C5 Dis5
|--------------------------------------------------|-------------------------|
|----------7-------5-------3-----------------------|-------------------------|
|----------7-------5-------4-------5--4--h5p4------|----------5-----------8--|
|----------------------------------7----------7p5--|----------5-----------8--|
|--5--5-5-----5-5-----5-5-----5-5------------------|--3--3-3--3---3--3-3--6--|
|--------------------------------------------------|-------------------------|

|--------------------------------------|
|--------------------------------------|
|----------5-----------8-----------5--o|
|----------5-----------8-----------5--o|
|--3--3-3--3---3--3-3--6---3--3-3--3---|
|--------------------------------------|

Chorus
|---------------------------------|
|---------------------------------|
|-----------------------5---3----o|
|---5----5--------------5---3----o|
|---5----5-------x--5---3---1-----|
|---3\6--3-------x--3-------------|

They're out to get me!

Don't worry, I will also add the solo.
Enjoy this for now!


VERSION 2

Intro
|-------------------------|
|-------------------------|
|-----------0------3---0--|
|-----------0--3---3---0--|
|---0-3-0------3----------|
|---0-3-0-----------------|

I think it is in the right key but I am not sure. It seems like there is a
couple notes in the middle that I left out but I have not heard the song in
a long time.


Oceń to opracowanie
Kontrybucje:
Angie
Angie
anonim