0
0

Let It Go James Bay

Tekst piosenki i chwyty na gitarę

  • Chwyty na gitarę floem
    3 ulubione
D|------------------------------------------------------------|
A|-----8-----8-----8----/13------13-----13-----13-----13------|
F|--------0-----0-----0-------0------0------0------0------0---|
C|------------------------------------------------------------|
G|-----6----------------/11-----------------------------------|
D|------------------------------------------------------------|

D|------------------------6------6------6---------------------|
A|-----8-----8-----8---------------------------9-------8------|
F|--------0-----0-----0-------0------0------0------0------0---|
C|------------------------------------------------------------|
G|------------------------------------------------------------|
D|-----8------------------6-----------------------------------|

D|------------------------------------------------------------|
A|-----8-----8-----8----/13------13-----13-----13-----13------|
F|--------0-----0-----0-------0------0------0------0------0---|
C|------------------------------------------------------------|
G|-----6----------------/11-----------------------------------|
D|------------------------------------------------------------|

D|------------------------------------------------------------|
A|-----8-----8-----8------6-------6------6------6------6------|
F|--------0-----0-----0-------0------0------0------0------0---|
C|------------------------------------------------------------|
G|------------------------------------------------------------|
D|-----8------------------6-----------------------------------|

CisFrom walkiFisn' home, and talkb ing loads, Gis  
CisTo seeing shFisows, in evening clothes,b with youGis
CisFrom neFisrvous touch, and gettingb drunk,  Gis  
CisTo stayinFis' up, and wakin' upb , with you.  Gis  

D|------------------------------------------------------------|
A|-----8-----8-----8------8-------8------8------8------8------|
F|--------8-----8-----8-------8------8------8------8------8---|
C|----10------------------8-----------------------------------|
G|------------------------------------------------------------|
D|------------------------------------------------------------|

D|------------------------------------------------------------|
A|-----8-----8-----8------8-------8------8------8------8------|
F|--------8-----8-----8-------8------8------8------8------8---|
C|-----7------------------6-----------------------------------|
G|------------------------------------------------------------|
D|------------------------------------------------------------|

D|------------------------------------------------------------|
A|-----8-----8-----8------8-------8------8------8------8------|
F|--------8-----8-----8-------8------8------8------8------8---|
C|----10------------------8-----------------------------------|
G|------------------------------------------------------------|
D|------------------------------------------------------------|

D|------------------------------------------------------------|
A|-----8-----8-----8------8~----------------------------------|
F|--------8-----8-----8---------------------------------------|
C|-----7------------------------------------------------------|
G|------------------------------------------------------------|
D|------------------------------------------------------------|


And now we're slippin' at the edge, holding something we don't need,
All this delusion in our heads, is gonna bring us to our knees

D|------------------------------------------------------------|
A|----13----13-----13----\8------8------8------8------8-------|
F|--------0-----0-----0------0------0------0------0------0----|
C|------------------------------------------------------------|
G|----11-----------------\6-----------------------------------|
D|------------------------------------------------------------|

D|------------------------------------------------------------|
A|-----4-----4------4----\3------3------3------3------3-------|
F|--------0-----0-----0------0------0------0------0------0----|
C|------------------------------------------------------------|
G|-----3-----------------\1-----------------------------------|
D|------------------------------------------------------------|

D|------------------------------------------------------------|
A|-----9-----9-----9-----\8------8------8------8------8-------|
F|--------0-----0-----0------0------0------0------0------0----|
C|------------------------------------------------------------|
G|-----8-----------------\6-----------------------------------|
D|------------------------------------------------------------|

D|------------------------------------------------------------|
A|-----3-----3-----3------3------3------3---------------------|
F|--------0-----0-----0------0------0-------------------------|
C|------------------------------------------------------------|
G|-----1--------------------------------1---------------------|
D|------------------------------------------------------------|

FisSo come on, Cislet it go
b Just let it Gisbe
FisWhy don't you Cisbe you
GisAnd I'll be me
FisAnd everything that'Ciss broke
b Leave it to the Gisbreeze
FisWhy don't you beCis you
GisAnd I'll be me
And I'll be me

D|------------------------------------------------------------|
A|-----8-----8-----8----/13------13-----13-----13-----13------|
F|--------0-----0-----0-------0------0------0------0------0---|
C|------------------------------------------------------------|
G|-----6----------------/11-----------------------------------|
D|------------------------------------------------------------|

D|------------------------6------6------6---------------------|
A|-----8-----8-----8---------------------------9-------8------|
F|--------0-----0-----0-------0------0------0------0------0---|
C|------------------------------------------------------------|
G|------------------------------------------------------------|
D|-----8------------------6-----------------------------------|

D|------------------------------------------------------------|
A|-----8-----8-----8----/13------13-----13-----13-----13------|
F|--------0-----0-----0-------0------0------0------0------0---|
C|------------------------------------------------------------|
G|-----6----------------/11-----------------------------------|
D|------------------------------------------------------------|

D|------------------------------------------------------------|
A|-----8-----8-----8------6-------6------6------6------6------|
F|--------0-----0-----0-------0------0------0------0------0---|
C|------------------------------------------------------------|
G|------------------------------------------------------------|
D|-----8------------------6-----------------------------------|

CisFrom throwFising clothes acrosb s the floorGis
CisTo teeth aFisnd clothes and slb amming doorGis on you
CisIf this isFis all we're lb iving forGis  
CisWhy are weFis doing it, doing b it, doing iGist anymore?

D|------------------------------------------------------------|
A|-----8-----8-----8------8-------8------8------8------8------|
F|--------8-----8-----8-------8------8------8------8------8---|
C|----10------------------8-----------------------------------|
G|------------------------------------------------------------|
D|------------------------------------------------------------|

D|------------------------------------------------------------|
A|-----8-----8-----8------8-------8------8------8------8------|
F|--------8-----8-----8-------8------8------8------8------8---|
C|-----7------------------6-----------------------------------|
G|------------------------------------------------------------|
D|------------------------------------------------------------|

D|------------------------------------------------------------|
A|-----8-----8-----8------8-------8------8------8------8------|
F|--------8-----8-----8-------8------8------8------8------8---|
C|----10------------------8-----------------------------------|
G|------------------------------------------------------------|
D|------------------------------------------------------------|

D|------------------------------------------------------------|
A|-----8-----8-----8------8~----------------------------------|
F|--------8-----8-----8---------------------------------------|
C|-----7------------------------------------------------------|
G|------------------------------------------------------------|
D|------------------------------------------------------------|

I used to recognize myself
It's funny how reflections change
When we're becoming something else,
I think it's time to walk away

D|------------------------------------------------------------|
A|----13----13-----13----\8------8------8------8------8-------|
F|--------0-----0-----0------0------0------0------0------0----|
C|------------------------------------------------------------|
G|----11-----------------\6-----------------------------------|
D|------------------------------------------------------------|

D|------------------------------------------------------------|
A|-----4-----4------4----\3------3------3------3------3-------|
F|--------0-----0-----0------0------0------0------0------0----|
C|------------------------------------------------------------|
G|-----3-----------------\1-----------------------------------|
D|------------------------------------------------------------|

D|------------------------------------------------------------|
A|-----9-----9-----9-----\8------8------8------8------8-------|
F|--------0-----0-----0------0------0------0------0------0----|
C|------------------------------------------------------------|
G|-----8-----------------\6-----------------------------------|
D|------------------------------------------------------------|

D|------------------------------------------------------------|
A|-----3-----3-----3------3------3------3---------------------|
F|--------0-----0-----0------0------0-------------------------|
C|------------------------------------------------------------|
G|-----1--------------------------------1---------------------|
D|------------------------------------------------------------|

FisSo come on, Cislet it go
b Just let it Gisbe
FisWhy don't you Cisbe you
GisAnd I'll be me
FisAnd everything that'Ciss broke
b Leave it to the Gisbreeze
FisWhy don't you beCis you
GisAnd I'll be me
And I'll be me

D|------------------------------------------------------------|
A|-----9------9------9------9------9------9------9------9-----|
F|--------0------0------0------0------0------0------0------0--|
C|------------------------------------------------------------|
G|-----8------------------8-----------------------------------|
D|------------------------------------------------------------|

D|------------------------------------------------------------|
A|-----8------8------8------8------8------8------8------8-----|
F|--------0------0------0------0------0------0------0------0--|
C|------------------------------------------------------------|
G|-----6------------------6-----------------------------------|
D|------------------------------------------------------------|

D|------------------------------------------------------------|
A|----15-----15-----15-----15-----15-----15-----15-----15-----|
F|--------0------0------0------0------0------0------0------0--|
C|------------------------------------------------------------|
G|----13------------------13----------------------------------|
D|------------------------------------------------------------|

D|------------------------------------------------------------|
A|----16-----16-----16-----16-----16-----16-----16-----16-----|
F|--------0------0------0------0------0------0------0------0--|
C|------------------------------------------------------------|
G|----15------------------15----------------------------------|
D|------------------------------------------------------------|

disTryin' to fit your hand inside of mib7 ne  
b7 When we know it just don't belong
GisThere's no force on earth
Could make me feel Fisright, no

disTryin' to push this problem up the hb7 ill 
b7 When it's just too heavy to hold
GisThink now's the time to let it sFislide

D|------------------------------------------------------------|
A|----13----13-----13----\8------8------8------8------8-------|
F|--------0-----0-----0------0------0------0------0------0----|
C|------------------------------------------------------------|
G|----11-----------------\6-----------------------------------|
D|------------------------------------------------------------|

D|------------------------------------------------------------|
A|-----4-----4------4----\3------3------3------3------3-------|
F|--------0-----0-----0------0------0------0------0------0----|
C|------------------------------------------------------------|
G|-----3-----------------\1-----------------------------------|
D|------------------------------------------------------------|

D|------------------------------------------------------------|
A|-----9-----9-----9-----\8------8------8------8------8-------|
F|--------0-----0-----0------0------0------0------0------0----|
C|------------------------------------------------------------|
G|-----8-----------------\6-----------------------------------|
D|------------------------------------------------------------|

D|------------------------------------------------------------|
A|-----3-----3-----3------3------3------3---------------------|
F|--------0-----0-----0------0------0-------------------------|
C|------------------------------------------------------------|
G|-----1--------------------------------1---------------------|
D|------------------------------------------------------------|

FisSo come on, Cislet it go
b Just let it Gisbe
FisWhy don't you Cisbe you
GisAnd I'll be me
FisAnd everything that'Ciss broke
b Leave it to the Gisbreeze
FisWhy don't you beCis you
GisAnd I'll be me
And I'll be me

D|------------------------------------------------------------|
A|----16-----16-----16-----16---------------------------------|
F|--------0------0------0-------------------------------------|
C|------------------------------------------------------------|
G|----15-------------------15---------------------------------|
D|------------------------------------------------------------|

Oceń to opracowanie
Kontrybucje:
floem
floem
anonim