0
0

You're Beautiful James Blunt

Tekst piosenki i chwyty na gitarę

  • Chwyty na gitarę Kacper
    102 ulubione
C My life is brilliant
G My love is pure
a I saw an angel
F Of that I'm sure
She Csmiled at me on the subway
She wasG with another man
Buta I won't lose no sleep on that
'Causea I've got a plan

F You're beautiGful
C You're beautiful
F You're beautGiful, it's tCrue
I Fsaw your Gface
In a CcrowGded aplace
And I Fdon't know Gwhat to ado
'Cause I'll Fnever Gbe with Cyou

G a F
Yes, she Ccaught my eye
As we wGalked on by
She could asee from my face that I was
FFlying high
And CI don't think that I'll Gsee her again
But awe shared a moment that will last to the end

F You're beautifuGl
C You're beautiful
F You're beautifulG, it's trCue
I Fsaw your Gface
In aC croGwdeda place
And I Fdon't know Gwhat to ado
'Cause I'll Fnever Gbe with yCou

F a F a F a d G

FYou're beautifGul
C You're beautiful
F You're beautifGul, it's tCrue
There Fmust be an angGel
With a Csmile Gon hera face
When she Fthought up that I should be with Gyou  C  G  a 
But it's Ftime to Gface the taruth
I will nFever bGe with yoCu

Oceń to opracowanie
Ocena czytelników: Niczego sobie 18 głosów
Kontrybucje:
Kacper
Kacper
Rocky
Rocky
anonim
  • Madzia
    Slawek 3 lata temu

    Niezłe

  • Vertal
    Vertal 11 lat temu

    powiedziałabym raczej:
    E|--------------------------------------------------------||
    B|-------4-3-4---4-3-4-6---4-3-4--------------------------||
    G|-----0-------0-----------------0-1----------------------||
    D|--------------------------------------------------------||
    A|--------------------------------------------------------||
    E|--------------------------------------------------------||

    brzmi zdecydowanie lepiej.

  • paulina
    paulina 12 lat temu

    a Lead powinien wyglądac tak::)
    e|------------------------------|
    B|---1-0-1----1-0-1-3--1-0-1----|
    G|-0--------0-------------------|
    D|-----------------------------------2-3|
    A|------------------------------|
    E|------------------------------|