Alive - bass KoRn

Tekst piosenki

  • Tekst piosenki damballa

Tuning- ADGCF

Intro: (0:00)

|-------------------------|
|-------------------------|
|-------------------------|
|-------------------------|
|2-0-0--2-0-0--2-0-0-2121-| then just 2-0-0 after

OR

|-------------------------|
|-------------------------|
|-------------------------|
|-------------------------|
|2-0-0--2-0-0--2-0-0-333--|


Riff: (0:09)

|-------------------------|
|-------------------------|
|-------------------------|
|-------------------------|
|0-0-0-3-3-3-0-0-0-3-3-3--|


Verse:
(0:26)

|---------------| |---------------|
|---------------| |---------------|
|---------------| X7 |---------------| X1
|---------------| |---------------|
|--2-0-22222/3--| |-0-3------0-3--|
(I cannot Every Find a way)


Riff: (0:45) Jon Screams "ALIVE!"

|-------------------------|
|-------------------------|
|-------------------------|
|-------------------------|
|0-0-0-3-3-3-0-0-0-3-3-3--|

Chorus: (1:04)
Sorry, i dont know, if anybody does, e-mail me

Verse:
(1:56)

|---------------| |---------------|
|---------------| |---------------|
|---------------| X7 |---------------| X1
|---------------| |---------------|
|--2-0-22222/3--| |-0-3------0-3--|
(little things..)


Oceń to opracowanie
Kontrybucje:
damballa
damballa
anonim