Ass Itch KoRn

Ass Itch - Guitar Tab 1
Transcribed by: Justin Shirah
E-mail: (fyhuang@america.com)


NOTE: Tune your guitars down 5 steps (ADGCea)


Intro/Verse
a|----------------------------------|
e|--------5--5-5-4-------5--5-5-4---|
C|----------------------------------|
G|-2-2--------------2-2-------------|
D|-2-2--------------2-2-------------|
A|-0-0--------------0-0-------------|

Pre-Chorus
C|--11-12-13---|
G|-------------|
D|---9-10-11---|
use a fast chorus effect for this part

Chorus
a|-------0-------0--|
e|-------5-------5--|
C|------------------|
G|--2-2-----2-2-----|
D|--2-2-----2-2-----|
A|--0-0-----0-0-----|

Bridge
a|--12--19--12--11~~~~~~~|
^use the fast chorus effect on this note

Bridge Part Deux
D|--3-2-3-2-32-|
A|--1-0-1-0-10-|
do this a bitchload of times

--------------------------------------------------------------
Ass Itch - Guitar Tab 2
Transcribed by: Unknown


NOTE: 7-string guitar tuned down a full step.


Intro
---------------
---------------
---------------
------9-9-9-8--
---------------
---------------
-0-0-----------

Verse same as intro

Bite! pain part
-------------------------------------
-------------------------------------
-------------------------------------
------------9-9-9-10-10-10-11-11-11--
-------------------------------------
-------------------------------------
-------------------------------------

Chorus
------14--------------
------14--------------
----------------------
----------------------I'm not sure what that high note is in there.
----------------------
-2-2-2---2-2---2-2--2-
-0-0-0---0-0---0-0--0-

Bridge
-------19-----------
----------20-20-19--
-16-16--------------
--------------------The last time just play the 19 really fast
--------------------
--------------------
--------------------

Bridge 2 and outro
------------
------------
------------
------------
------------
-3-2-3-2-32-
-1-0-1-0-10-



Oceń to opracowanie
Kontrybucje:
s314ryt
s314ryt
anonim