K@#%! KoRn

Tekst piosenki

  • Tekst piosenki s314ryt
K@#%! - Guitar Tab 1
Transcribed by: Justin Shirah
E-mail: (fyhuang@america.com)


NOTE: Dis be a naughty song that should be tuned one whole step
down on a seis stringed guitar (DGCFAD) and 5 steps down on a
nudder (ADGCea).


Intro
d|------------------------------------|
a|------------------------------------|
F|------------------------------------|
C|------------------------------------|
G|--11\\10---9---8---8---8/9\8--8---8-|
D|--10\\9----8---7---7---7/8\7--7---7-|
A|------------------------------------|

Chorus
G|--5\\4----3---2---2--2/3\2--2---2-| have the 1 step down guitar
D|--5\\4----3---2---2--2/3\2--2---2-| play these inverted power chords
A|--3\\2----1---0---0--0/1\0--0---0-|

Pre-Chorus
G|3/4--4--4/5--5--5/6--6--6/7--7--6/7--7/8-| do the inverted power chord
D|3/4--4--4/5--5--5/6--6--6/7--7--6/7--7/8-| thing again
A|1/2--2--2/3--3--3/4--4--4/5--5--4/5--5/6-|

Verse
d|-----19----------------19----| these are played by guitar1 and
a|--17-------------------------| are natural harmonics
F|-----------------------------|
C|-----------------------------|
G|-----------------------------|
D|-----------------------------|
A|---------0-0---0--0------1---| guitar 2

PHIL
a|--------0-------------0--
e|-------15^-----------15^-|
C|-------------------------|
G|-------------------------|
D|-------------------------|
A|-0-0----------00-0-------|


Oceń to opracowanie
Kontrybucje:
s314ryt
s314ryt
anonim