LIFE IS PEACHY wszystkie taby KoRn

Tekst piosenki

  • Tekst piosenki Mati
LIFE IS PEACHY
mr rogers

transcribed by justin "goodythreeshoes" shirah
tune down 5 steps on a 6 string guitar
(A D G C e a)

Intro
A|-0-0-2-0-0-0-2-0-2-0-0-2-0-0-3-0-3-|

Main Riff (guitar 1)
D|-2--2-2--8\-2-2--2-2-7-8-9-|
A|-0--0-0--6\-0-0--0-0-5-6-7-|

Main Riff (guitar 2)
C|---------7\6-6-6\5-------------|
G|-------------------------------|
D|-2--2----5\4-4-4\3-------7-8-9-|
A|-0--0-0------------0-0-0-5-6-7-|
use a chorus pedal when playing the high sliding part

Pre Verse (guitar 1)
do random pick scraping

Pre-Verse (guitar 2)
C|--9-----------------------|
G|--------------------------|
D|--7-----------------------|
A|--0-----------------------|

Verse
a|--------11---10-----10---11--|
e|--9--------------------------|

Be My Neighbor (guitar 1)
G|-2-2-222--2--2-2-222-2-|
D|-2-2-222--2--2-2-222-2-|
A|-0-0-000--0--0-0-000-0-|

Be My Neighbor (guitar 2)
b|--16  ~~~~~~~~~~~~~15~~~~~~~~~~~~~|

Bridge 1
same as verse but with a fucked up effect over it
use a fast chorus pedal

Bridge 2
D|--2---2-2--2---3--|
A|--0---0-0--0---1--|

        ~~~~~~~~~~~~~~~~~~~~~~~~~~~~~~~~~~~~~~~~~~~~~~~~~~~
Mr. Rogers

time has come to realize
what you are what youve done inside
time has come well have something to talk about
I will too

looking back (dumb)
and now i realize (old man)
how much you really liked him (dumb)
this child's mind you terrorized (old man)
you came to him (dumb)
he really didnt know your lies (old man)
now his innocence gone (dumb)
hes that child you terrorized

this fucking hate that i feel
i attribute it to you
this fucking hate that i feel
because of you

my childhood is gone
because i loved you
my childhood is gone
because of you

be my neighbor

looking back (child)
on how i realized (fucker)
how much you really loved him (child)
this child's mind you hypnotized (fucker)
you came to him (child)
he really didnt know your lies (fucker)

now his innocence gone (child)
Im that child you terrorized

...be my neighbor...
...be my neighbor...
my neighbor

but you told me everybody was my neighbor
they took advantage of me and they werent my neighbors
i wish i woulda watched you
wish you didnt live in my childhood
ill kill you
what a fucking neighbor

I hate you
i will too
i hate you
i will too

...be my neighbor...

this fucking hate that i feel

my childhood is gone

i will too
i will too
i will too
        ~~~~~~~~~~~~~~~~~~~~~~~~~~~~~~~~~~~~~~~~~~~~~~~~~~

K@#0%!

transcribed by justin"jizzmopper"shirah
Dis be a naughty song that should be tuned
one whole step down on a seis stringed guitar
(DGCFAD) and 5 steps down on a nudder(ADGCea)

Intro
d|------------------------------------
a|------------------------------------
F|------------------------------------
C|------------------------------------
G|--11\\10---9---8---8---8/9\8--8---8-
D|--10\\9----8---7---7---7/8\7--7---7-
A|------------------------------------

Chorus
G|--5\\4----3---2---2--2/3\2--2---2-|>12<<---->>12<<---->>12<<-|
fade in and out using volume knob

Main Riff
G|--------------------------4-4-|
D|------------------------------|
A|--3-3-3--2-2-2--3-3-3-2-2-2-2-|

Verse
C|--->>>12<<<-----|
fade in and out using volume knob

Bridge 1
G|-10\9-9-10\9-9--9-9-10\9-9-|
D|--8\7-7--8\7-7--7-7--8\7-7-|
A|---------------------------|

Bridge 2
E|--3\2-2--3\2-2--2-2--3\2-2-|
B|--1\0-0--1\0-0--0-0--1\0-0-|

##############################################################
loST

Ugh!
why cant i decide why my feelings i hide
always screwing with my mind a thorn in my spine
oh sure it feels fine wasting all our time
in the back of my mind a thorn in my spine

WAIT see it before my eyes
WHY do it that away

looking all the time at your face so blind
feeling uptight always the same fight
hey man now decide go ahead take your time
kissing all the time hat thorn in my spine

WAIT you cannot see my side
WHY play yourself out that way
WHY you and me always hang
WAIT werent you my friend

the pain in which i could not feel

hey man look inside now you need your own life
remember me guy that thorn in my spine
waiting all the time im doing mighty fine
remember me guy that thorn in your spine

WAIT you cant even see my side
WHY play yourself out that way
WHY you and me always hang
WAIT werent you my friend
WAIT you were my friend
WAIT you were my friend
WAIT you were my friend
WAIT you were my friend
############################################################

Swallow

transcribed by justin"black to the future"shirah
tune tha six strings down 5 fookin steps

intro
G|--4-------4--------------------------|
D|-------------------------------------|
A|----2-1-2---2-1-2-2---3-2-1--2-1-1-1-|

main riff
G|--4-------4-------------------------|
D|----4-3-4---4-3-4-4--5-4-3--4-3-3-3-|
A|----2-1-2---2-1-2-2--3-2-1--2-1-1-1-|

Verse (guitar1)
a|---12^-0h10--|

Verse (guitar2)
C|--11--|
G|--10--|
D|---9--|
listen to the album to get the right timing

Bridge
C|-----------9/10-8-8/9-7-|
G|------------------------|
D|-2-2----2--7/8--6-6/7-5-|
A|-0-0-00-0---------------|

        ~~~~~~~~~~~~~~~~~~~~~~~~~~~~~~~~~~~~~~~~~~~~~~~~~~~~~
sWALLow

funky ass ho.....

always locked in my head
no pain you dont know what i have had
right now so for sure
right now i am yours

my sorrow i swallow
follow me oh hell no

it came unknown to me
paranoid its controling all of me
somehow turned so pure
right now shit im yours

my sorrow i swallow
follow me oh hell no
was it me i swallowed
forget me i dont know

oh hell no oh hell no oh hell no oh hell no

this thing i follow
the place i just get to fucking go
a freak that im sure
a freak that is yours

i swallow i swallow i swallow i swallow

freak punk ass sissy im a
freak punk ass sissy im a
freak punk ass sissy im a
freak
        ~~~~~~~~~~~~~~~~~~~~~~~~~~~~~~~~~~~~~~~~~~~~~~~~~~~~~~~~~~~~~~

pORNo cREEp

transcribed by Albert "biggie lives on" Huang

Standard tuning

Intro
turn your amp super loud and play with the wah wah until
you get it right

Post Intro
e|--(softly)-12-12-12-12-12-12-12-12-12-12-12-12-12-12-12-|

Rap Sample Sounding Riff
e|-18--19-17--18--13-///9////5-|

(continued)
e|-18--22^-17--22^-22^(bend higher than previous note)

you'll need a mu-tron bi-phaser for this. if you're like
me and don't got one just use a wah wah.

guitar2 background chords

g7 D
e|----| e|-13-|
b|-12-| b|-15-|
g|-10-| g|-14-|
u will need a wah wah for this too

phat-ass bass lick
D|-------------3-|
A|--5--0--3//5---|
@@@@@@@@@@@@@@@@@@@@@@@@@@@@@@@@@@@@@@@@@@@@@@@@@@@@@@@@@@@@@@
porno creep

licensed to kill
my faith

licensed to kill
my faith
@@@@@@@@@@@@@@@@@@@@@@@@@@@@@@@@@@@@@@@@@@@@@@@@@@@@@@@@@@@@@@

sorry theyre out of order but it kept fucking up on me. sorry
--------------------------------------------------------------------------------
MISCELLANEOUS
oK HERE'S EVERYTHING THAT DIDNT FIT ANYWHERE ELSE.
AYEET! HERE WE GO...

Sean Olsen

transcribed by justin"greatballsoffire"shirah
tune a six string guitar down 5 whole steps
(A D G C e a)

Intro
a|-0-0-0-0-0-0-0-0-0-0-0-0-0-0-0-0-0-0-0-0-|
e|-5-5-5-5-5-5-5-6-6-6-4-4-4-4-4-4-4-0-0-0-|

Verse Riff
G|-----9---9-----8---10-|
D|-----8---8-----9---10-|
A|-0-0---0---0-0---8----|

Chorus
D|-5-6-4----------|
A|-3-4-2-00-3/4\2-|

Outro
G|---2-----2-----2-----3-|
D|---2-----2-----2-----3-|
A|-0---00----00----001-1-|
*********************************************************
seaN olseN

what's your lie?

one lifts a big smile as media man runs wild
this game you play I like it a lot
you expect to gravitize
you think i'm communist and i'm wild
take me to the see of merchanting

never a body killer but i think it and i know
how to kill somebody thats been hard to the bitch you sold
i'll show you fear pleasure pain its my control
let your body lay in me white flesh sticky feel

one lifts a big smile hatred runs through your insides
this game you play into my dish and its plate
you think its all a lie
they want to destroy your life
anger twisted your life into pain

i wish i could take control
i wish i could let go
i wish i could break this mold
its hot i'm so fucking cold

im cumming im cumming im cumming on you

i am done that was so fun
this was well how do you feel?
i feel good.

was cumming was cumming was cumming on you
a cumming a cumming a cumming on you
*********************************************************

daddy

transcribed by justin"i suck"shirah
tune tha 6 stringed guitars down fi' whole steps
(A D G C e a)

Verse Riff
a|-----13------12------12|
e|--16-------15-----15---|

Chorus
a|-----0--0--------------0--0--------------|
e|-------3-3-----0--0-----3--3------0--0---|
C|----------------4--4---------------4--4--|
G|--5-4-----4/5-4-----5-3-----3/4-3--------|
D|--5-4-----4/5-4-----5-3-----3/4-3--------|
A|--3-2-----2/3-2-----3-1-----1/2-1--------|

Bridge
a|-------------------18^----------------|
e|--------------------------------------|
C|--------------------------------------|
G|--------------------------------------|
D|--2---------2---------2---------2---3-|
A|--0-0--00-0-0-0-00----0-0--00-0-0--01-|

Bridge part 2
G|--4--5-5-4-8----5----8-|
D|--4--5-5-4-8----5----8-|
A|--2--3-3-2-6----3----6-|

Fill before Final Chorus
A|--222333-| then go to chorus after first chord change

phatty bass lick
D|----1h0------1h0-----1h0---------|
A|-0-0---0-0--0---0-0-0---0-0-0-01-|
.........................................................
daddy

mother, please forgive me
i just had to get out all my pain and suffering
Now that i am done
remember i will always love
im your son

little child, lookin so pretty
come out and play, ill be your daddy
Innocent Child, looking so sweet
A rape in my eyes and of your flesh ill eat

You raped-i feel dirty-it hurt as a child
tied down-thats a good boy-and fucked your own child
i scream-no one hears me-it hurt-not alive
MY GOD!-saw you watching-mommy why?-your own child

little child, lookin so pretty
come out and play, ill be your daddy

you raped-im your daddy-it hurt-as a child
tied down-thats a good boy-and fucked your own child
i scream-no one hears me-it hurt-not alive
MY GOD!-saw you watching-mommy why?-your own child

its alright

raped-i feel dirty-it hurt as a child
tied down-thats a good boy-and fucked your own child
im raped-no one hears me-it hurt as a child
tied down-no one hears me-it hurt your own child
i said-no one hears me-it hurts-as a child
tied down-thats a good boy-and fucked your own child
i screamed-no one hears me-it hurt as a child
tied down-no one hears me-mommy why? your own child

I didnt touch you there, mommy said she didnt care
I didnt touch you there, thats when mommy stopped and stared

little child, lookin so sweet
a rape in my eyes, and of your flesh ill eat

you raped-im your daddy-it hurt as a child
tied down-thats a good boy-and fucked your own child
i screamed-no one hears me-it hurt-not alive
MYGOD!-saw you watching-mommy why? your own child

you raped im your daddy it hurt not alive
my god saw you watching daddy why your own child
i screamed no one hears me it hurt not alive
my god saw you watching mommy why your own child
you raped im your daddy it hurt not alive
my god saw you watching mommy why your own child
i screamed no one hears me it hurt not alive
my god saw you watching
MOMMY WHY!

...i fuckin hate you...you fuckin motherfucker...
...i fuckin hate you...fuck you...you sunuvabitch...
...you fuckin ruined my life...it wasnt dad...
...ill see you fucker...fuckin' daddy...
...i hate you...i fuckin hate you...i hate you...
...peice of shit...i...ughhh...

(when i awake ill see your face when i awake ill see your light
Mother wake me from my dream,Mother wake me in my light
and then you will have had never seen me again)
...............................................................
SORRY BUT OUR HELMET IN THE BUSH FUCKED UP.
THANKS TO ROB SANCHEZ FOR WICKED.AYEET BELOW IS A LINK TO OUR
UDDER PAGINA Y SOME OTHER COOL KORN PAGES.
HAVE FUN AND DONT ROB ANY BANKS. IF YOU NEED HELMET IN
THE BUSH OR ANYTHING ELSE, JUST EMAIL US:FYHuang@america.com
LOVE
ALBERT AND JUSTIN

--------------------------------------------------------------------------------
OTHER BITCHIN KORN PAGES

SPAWN'S KORN PAGE: dis be one phat page. its da next best after ours
KORNOGRAPHY: dis be our udder page. it gots tabs for all da first cd songs and
lyrics
DA OFFISHUL EBONICS HOOD: this gots nuthin ta do wit korn but this site kicks
ass anyway
--------------------------------------------------------------------------------

ÚÄÄÄÄÄÄÄÄÄÄÄÄÄÄÄÄÄÄÄÄÄÄÄÄÄÄÄÄÄÄÄÄÄÄÄÄÄÄÄÄÄÄÄÄÄÄÄÄÄÄÄÄÄÄÄÄÄÄÄÄÄÄÄÄÄÄÄÄÄÄÄÄÄÄÄÄÄÄż
ł Space for this web page is provided as a service to Tripod members. The ł
ł contents of this page are the responsibility of its creator, not Tripod, ł
ł Inc. ł
ĂÄÄÄÄÄÄÄÄÄÄÄÄÄÄÄÄÄÄÄÄÄÄÄÄÄÄÄÄÄÄÄÄÄÄÄÄÄÄÄÄÄÄÄÄÄÄÄÄÄÄÄÄÄÄÄÄÄÄÄÄÄÄÄÄÄÄÄÄÄÄÄÄÄÄÄÄÄÄ´
ł Tripod Home | Search Member Pages | Free Homepage Builder | Planet T | ł
ł Daily Scoop | Toybox ł
ŔÄÄÄÄÄÄÄÄÄÄÄÄÄÄÄÄÄÄÄÄÄÄÄÄÄÄÄÄÄÄÄÄÄÄÄÄÄÄÄÄÄÄÄÄÄÄÄÄÄÄÄÄÄÄÄÄÄÄÄÄÄÄÄÄÄÄÄÄÄÄÄÄÄÄÄÄÄÄŮ



Oceń to opracowanie
Kontrybucje:
Mati
Mati
anonim