0
0

Grzesznik Kult

Tekst piosenki i chwyty na gitarę

  • Chwyty na gitarę Zedka
    6 ulubionych

Dźwięki grane w czasie akordów A E A:
E------------------------------
H--5--4--5--7--5--4--5-5-5-----
G----------------------------6-
D------------------------------
A------------------------------
E------------------------------

Refren: A E A E A

solo na waltorni:
E--------------------------------------------
H--------------------------------------------
G--4--2--1-----------2---1-------------------
D-----------4--2--2---------4--2--0--2--0----
A------------------------------------------4-
E--------------------------------------------

E--------------------------------------------
H--------------------------------------------
G--4--2--1-----------2---1--2--1-------------
D-----------4--2--2---------------4--2--0----
A------------------------------------------0-
E--------------------------------------------


Ściągnąłem księdzu sygnet z palca
Gdy obok mnie usiadł na wersalce
A gdy potem upił się winem
wstrzyknąłem mu w nogę lidokainę

Bo jestem grzesznikiem i o tym wiem
O tym wiem, ze jestem grzesznikiem
Jestem grzesznikiem i o tym wiem
O tym wiem, że jestem grzesznikiem

Wierzę w rzeczy co się nie kończą
To co dobrze widać szybko się skończy
Wszystko na tym świecie minie
A moje słowo nie przeminie


By włożyć Ci obrączkę na palec
Spowiednika okłamałem
Potem skopałem Olafa z Berlina
Ledwo się na nogach utrzymał

Bo jestem grzesznikiem i o tym wiem
O tym wiem, ze jestem grzesznikiem
Jestem grzesznikiem tak to wiem
O tym wiem, że jestem grzesznikiem
Jestem świętym - taka różnica
Taka różnica mnie nie zachwyca
Jestem świętym - taka różnica
Taka różnica mnie nie zachwyca

Kto ma rozum, ten często błądzi
Kto ciągle szuka winy ten zabłądzi
Niech życie płynie zgodnie z własnym sumieniem
Kierując się odruchu sercem

Bo jestem grzesznikiem i o tym wiem
O tym wiem, ze jestem grzesznikiem
Jestem grzesznikiem tak to wiem
O tym wiem, że jestem grzesznikiem
Jestem świętym - taka różnica
Taka różnica mnie nie zachwyca
Jestem świętym - taka różnica
Taka różnica mnie nie zachwyca

http://republika.pl/bj_studio/




Oceń to opracowanie
Kontrybucje:
Zedka
Zedka
anonim
  • karolina
    dzięki. : )
    ale proste chwyty.
    · Zgłoś · 10 lat temu
  • Madzia
    Wierny słuchacz Kazika
    Nie ma piosenki kazika która mnie jako osobie fizycznej by się nie podobała. Każda piosenka kazika wnosi specyficzny klimat. Po prostu ma w sobie coś i dlatego chciałem serdecznie podziękować Kazikowi Staszewskiemu za to że z Nami jest i śpiewa.
    Jego Wierny Słuchacz
    · Zgłoś · 17 lat temu