0
0

Komu bije dzwon Kult

Tekst piosenki i chwyty na gitarę

  • Chwyty na gitarę Średni Tonacja a
    46 ulubionych
Wstęp:
-||----------------------------------------------------------
-||----------------------------------------------------------
-||--2-----0--2--0-----0--0--2--0----------------------------
-||-----2-----------2--------------3--2--0-------------------
-||-----------------------------------------3--2--0-----0----
-||--------------------------------------------------3-------

-||-------------------------------------------------------------
-||-------------------------------------------------------------
-||-----2--------0--2--0-----0--0--2--0-------------------------
-||--------0--2-----------2--------------3--2--0----------------
-||--0--------------------------------------------3--2--3--2--0-
-||-------------------------------------------------------------

-||----------------------------------------------------------
-||----------------------------------------------------------
-||--2--------0--2--4--2-----0--2--0-------------------------
-||-----0--2--------------2-----------3--2--0----------------
-||--------------------------------------------3--2--0-----0-
-||-----------------------------------------------------3----

-||-------------------------------------------------------
-||-------------------------------------------------------
-||--2--------0--2--4--5--2--2--0-------------------------
-||-----0--2-----------------------3--2--0----------------
-||-----------------------------------------3--2--0-----0-
-||--------------------------------------------------3----

Zwrotki gra się bardzo podobnie.

Solówka:
-||-----------------------------------------------------------------------
-||--------------------------------------6--5-----------------------------
-||--2-----2--4-----4--5--4--5--7--5--7--------7--5--4--2--1-----1--2-----
-||-----2--------2--------------------------------------------4--------2--
-||-----------------------------------------------------------------------
-||-----------------------------------------------------------------------

-||-----------------------------------------------------------------
-||-----------------------------------------1-----------------------
-||--2--2-----2--4-----4--5--4--5--7--7--2-----2--0-----1-----1--2--
-||--------2--------2--------------------------------2-----2--------
-||-----------------------------------------------------------------
-||-----------------------------------------------------------------

-||-----------------------------------------------------------------------
-||----------------------------------------6--5---------------------------
-||----2-----2--4-----4--5--4--5--7--5--7--------7--5--4--2--1-----1--2---
-||-2-----2--------2--------------------------------------------4--------2
-||-----------------------------------------------------------------------
-||-----------------------------------------------------------------------

-||-----------------------------------------------------------------------
-||--------------------------------------6--8--10--5----------------------
-||--2--2-----2--4-----4--5--4--5--7--7---------------7--5--4-------------
-||--------2--------2------------------------------------------7--6--7----
-||-----------------------------------------------------------------------
-||-----------------------------------------------------------------------


aZnowu dziś ewidzę azachód esłońca
FZnowu Cudało się Edoczekać akońca
aMniej szczęeścia mieli, ailu ich ebyło
FWielu, Cnawet ich Enie liaczyłem
aCodziennie eżniwo aswoje zebieram
FKres pCodróży Ekażdego adnia
aByć czy emieć - takie adwa pyetania
FBliżejC ku celom Eposiadaniaa

   FNie mam epotrzeby Fzbyt wiele ewiedzieć
   FNie mam epotrzeby Ewiedzieć zbyt awiele
   FGdy wszystko sekończy się Fjak myeślałem
   FWsyp mnie doe ziemi, Estąd przyjeachałem
   aBim-ebom, bam-abim-ebom /x4
   FSkąd wiedzieć Cwszystko koEmu bije adzwon /x4

aWięc głowa do egóry, gdy dazień wstaje erano
FOd tego są Cnogi, by Ełazić na anich
aWe edni, czy goarsze, czy leepsze
FTen jest oCstatni, Ektóry nie apierwszy
aBrzdęk, pękła eczara apełna goeryczy
FRozlanych Ckropel Ejuż nie paoliczę
aKtóry dzień ebędzie ten dazień osteatni
FByłem czy Cmiałem - Edwie zaagadki

   FNie mam epotrzeby Fzbyt wiele ewiedzieć
   FNie mam epotrzeby Ewiedzieć zbyt awiele
   FGdy wszystko sekończy się Fjak myeślałem
   FWsyp mnie doe ziemi, Estąd przyjeachałem
   aBim-ebom, bam-abim-ebom /x4
   FSkąd wiedzieć Cwszystko koEmu bije adzwon /x4



Oceń to opracowanie
Ocena czytelników: Dobry 34 głosy
Kontrybucje:
Zedka
Zedka
ro
ro
anonim
  • Marcin
    bazyl
    SUPER DZIĘKI !!!!!!!!!!!!!!!!!!!
    · Zgłoś · 15 lat temu