0
0

Lewy Czerwcowy Kult

Tekst piosenki i chwyty na gitarę

  • Chwyty na gitarę Redakcja
    2 ulubione

E-|---------------zwrotka-----------------------------------------------------|
B-|-------------0-------------------------------------------------------------|
G-|---------------------------------------------------------------------------|
D-|-04545---5---2-------------------------------------------------------------|
A-|---------5---2-------------------------------------------------------------|
E-|---------3---0-------------------------------------------------------------|


E-|---------------refren------------------------------------------------------|
B-|---------------------------------------------------------------------------|
G-|---------------------------------------------------------------------------|
D-|-10--7---10--7---5---2---5---2---------------------------------------------|
A-|-10--7---10--7---5---2---5---2---------------------------------------------|
E-|-8---5---8---5---3---0---3---0---------------------------------------------|


Oceń to opracowanie
Ocena czytelników: Słaby 10 głosów
Kontrybucje:
Redakcja
Redakcja
anonim