0
0

Dom Kwiat Jabłoni

Tekst piosenki i chwyty na gitarę

  • Chwyty na gitarę Średni Tonacja d
    28 ulubionych
e--------------------------------------
h--------------------------------------
g-7-7-10-9-7---9-7---------------------
d-----------10----10-7--7----7---------
a---------------------10---10--10-8----
e----------------------------------10--

e--------------------------------------
h--------------------------------------
g--------------------------------------
d---7---------------------------7------
a-10--10-8-----7-8-10-7-7---7-----10-8-
e---------10-10----------10---10-------

e--------------------------------------
h--------------------------------------
g--------------------------------------
d--------------------------------------
a---------7-8--------------------------
e-10-10-10-----------------------------

dZnowu zamykam drzwi
dNa noc przekręcam czwartyF spust
dZasłaniam okna by
dNikt nie zobaczył drżącychF ust
dSzczelin i pęknięć brak
dPozamykany szczelnie dFom
dNa zewnątrz wszystko gra
dA w środku nie wiadomo cFo

Odkąd pamięBtam
Meble spadaCją i trzęsie się ddach
Przed domem spBokój
Aż słyCchać najlżejszy wiadtr

Nie umiem wByjść
Żeby stdanąć przy toFbie
MijająB dni
Znowu nidc ci nie poFwiem
Znów mi się śniBsz
Bliżej nide mogę poFdejść
Czy starczy mi lCat
Żeby poBzbyć się ścidan?

B d F
B d F
B d F

Czy starczy mi lCat
Żeby poBzbyć się ścidan?


dSpędzam kolejny dzień
dW tym domu bez pękniętych Fścian
dZamknięte okna, drzwi
dDostać się do mnie nie ma jFak
dSam nie wiem jak mam wyjść
dNie tylko szyby są ze Fszkła
dJak mam się ruszyć gdy
dNie widzę granic moicFh ram

Odkąd pamięBtam
Meble spadaCją i trzęsie się ddach
Przed domem spBokój
Aż słyCchać najlżejszy wiadtr

Nie umiem wByjść
Żeby stdanąć przy toFbie
MijająB dni
Znowu nidc ci nie poFwiem
Znów mi się śniBsz
Bliżej nide mogę poFdejść
Czy starczy mi lCat
Żeby poBzbyć się ścidan?

B d F
B d F
B d F

Czy starczy mi lCat
Żeby poBzbyć się ścidan?

g B F C

gPłomienie trawią od środka dBom
FPożar wybucha we mnie co nCoc
gChcę powiedzieć wszystko, lecz brakuje słBów
Za mFało lat, za mało lat, za małCo

Nie umiem wyjść
Żeby stanąć przy tobie
MijająB dni
Znowu nidc ci nie poFwiem
Znów mi się śniBsz
Bliżej nide mogę poFdejść
Czy starczy mi lCat
Żeby poBzbyć się ścidan?

Nie umiem wByjść
Żeby stdanąć przy toFbie
MijająB dni
Znowu nidc ci nie poFwiem
Znów mi się śniBsz
Bliżej nide mogę poFdejść
Czy starczy mi lCat
Żeby poBzbyć się ścidan?

Oceń to opracowanie
Ocena czytelników: Niczego sobie 2 głosy
Historia
Kontrybucje:
me
me
anonim