0

Shallow Lady Gaga

Tekst piosenki i chwyty na gitarę

  • Chwyty na gitarę monixx
    144 ulubione
Bradley Cooper
e	  D       G
Tell me somethin' girl…
C		       G      D
Are you happy in this modern world?
e      D        G
Or do you need more?
C                               G         D
Is there somethin' else you’re searchin' for?

e    D   G
I’m fallin'
C                        G       D     e     D    G
In all the good times I find myself longin' for change
C                        G     D
And in the bad times I fear myself

Lady Gaga
e	  D       G
Tell me somethin' boy…
C		             G       D
Aren’t you tired tryin' to fill that void
e      D        G
Or do you need more?
C                         G        D
Ain’t it hard keepin' it so hardcore

e    D   G
I’m fallin'
C                        G       D     e     D    G
In all the good times I find myself longin' for change
C                        G     D
And in the bad times I fear myself

a                     D
I’m off the deep end, watch as I dive in
G           D        e
I’ll never meet the ground
a                           D
Crash through the surface, where they can’t hurt us
G                    D      e
We’re far from the shallow now

Lady Gaga & Bradley Cooper
a                  D
In the shallow, shallow
G                  e
In the shallow, shallow
a                  D
In the shallow, shallow
G                   D       e
We’re far from the shallow now

Lady Gaga
e h A
Wooaaaah
e h D A
Woaaaaaaaaaaah

a                     D
I’m off the deep end, watch as I dive in
G           D        e
I’ll never meet the ground
a                           D
Crash through the surface, where they can’t hurt us
G                    D      e
We’re far from the shallow now

Lady Gaga & Bradley Cooper
a                  D
In the shallow, shallow
G                  e
In the shallow, shallow
a                  D
In the shallow, shallow
G                   D       e
We’re far from the shallow now


solówka

  e7        D   G                     C                 G     D
e|-----------------|-----------------|-------------0---|-----------0h2p0----|
B|-----3-----3---3-|-----------------|-----1-3-------3-|---3---3--------3---|
G|-------0---2---0-|-----------------|---------0-------|---0---2----------2-|
D|---2-------------|-----------------|---2-------------|-------0------------|
A|-----------------|-----------------|-3---------3-----|--------------------|
E|-0-------2-----3-|-----------------|-----------------|-3------------------|


   e7       D   G
e|-----------------|-----------------|
B|-----3-----3---3-|-----------------|
G|-------0---2---0-|-----------------|
D|---2-------------|-----------------|
A|-----------------|-----------------|
E|-0-------2-----3-|-----------------|

Oceń to opracowanie
Ocena czytelników: Dobry 59 głosów

Dodaj własne wykonanie

Umiesz zagrać tą piosenkę? Nagraj swoje wykonanie i pokaż innym jak grasz!
anonim