0
0

Shallow Lady Gaga

Tekst piosenki i chwyty na gitarę

  • Chwyty na gitarę Średni
    919 ulubionych
Bradley Cooper
eTell mDe somethGin' girl…
CAre you happy iGn this Dmodern world?
eOr do yDou need mGore?
CIs there somethin' else you’re sGearchin' fDor?

eI’m fDalliGn'
CIn all the good times I fGind myseDlf lonegin' fDor chGange
CAnd in the bad times I feGar mysDelf

Lady Gaga
eTell mDe somethGin' boy…
CAren’t you tired tryiGn' to fiDll that void
eOr do yDou need mGore?
CAin’t it hard keepin' it sGo hardcorDe

eI’m fDalliGn'
CIn all the good times I fGind myseDlf lonegin' fDor chGange
CAnd in the bad times I feGar mysDelf

aI’m off the deep end, Dwatch as I dive in
GI’ll never mDeet the geround
aCrash through the surface, wDhere they can’t hurt us
GWe’re far from the shDallow neow

Lady Gaga & Bradley Cooper
aIn the shallow, shaDllow
GIn the shallow, shaellow
aIn the shallow, shaDllow
GWe’re far from the sDhallow neow

Lady Gaga
BWoDoaAaaeah
BWoDaaAaaaaaaaaah

aI’m off the deep end, Dwatch as I dive in
GI’ll never mDeet the geround
aCrash through the surface, wDhere they can’t hurt us
GWe’re far from the shDallow neow

Lady Gaga & Bradley Cooper
aIn the shallow, shaDllow
GIn the shallow, shaellow
aIn the shallow, shaDllow
GWe’re far from the sDhallow neow


solówka

e|e7 -----------D----G--|-----------------|-C------------0---|-G------D----0h2p0----|
B|-----3-----3---3-|-----------------|-----1-3-------3-|---3---3--------3---|
G|-------0---2---0-|-----------------|---------0-------|---0---2----------2-|
D|---2-------------|-----------------|---2-------------|-------0------------|
A|-----------------|-----------------|-3---------3-----|--------------------|
E|-0-------2-----3-|-----------------|-----------------|-3------------------|


e|-e7 ----------D----G--|-----------------|
B|-----3-----3---3-|-----------------|
G|-------0---2---0-|-----------------|
D|---2-------------|-----------------|
A|-----------------|-----------------|
E|-0-------2-----3-|-----------------|


Oceń to opracowanie
Ocena czytelników: Niczego sobie 269 głosów
anonim