0
0

Mariners Apartment Complex Lana Del Rey

Tekst piosenki i chwyty na gitarę

  • Chwyty na gitarę Początkujący
    2 ulubione
Intro:
e|--------------a -----------G---------D-------|---------a ---------G---------D----------|
B|--------------1----0-----0--------3------|---------1--------0--------3---------|
G|-----0--2--4--2-------2--0--2--0--2------|---------2--------0--------2---------|
D|--4-----------2----------0--------0------|---------2--------0--------0---------| x2
A|--------------0----------2--------0------|---------0--------2--------0---------|
E|-----------------------------------------|-------------------------------------|
e|--a7 0--0--0--0--0--0--0----|--G3--3--3--3--3--3--3--D2--|--2--2--2--2--2--2--2--2--|
B|--1--1--1--1--1--1--1----|--3--3--3--3--3--3--3--3--|--3--3--3--3--3--3--3--3--|
G|--0--0--0--0--0--0--0----|--0--0--0--0--0--0--0--2--|--2--2--2--2--2--2--2--2--|
D|--2--2--2--2--2--2--2----|--0--0--0--0--0--0--0--0--|--0--0--0--0--0--0--0--0--|
A|--0--0--0--0--0--0--0----|--2--2--2--2--2--2--2--0--|--0--0--0--0--0--0--0--0--|
E|-------------------------|--------------------------|--------------------------|


D You took my sadness out of context
a At the Mariners apartment complex
G I ain't no candle in the Dwind
D I'm the board, the lightning, the thunder
a Kind of girl who's gonna make you wonder
G Who you are and who you've Dbeen

D And who I've been is with you on these beaches
a Your Venice bitch, your die-hard, your weakness
G Maybe I could save you from your Dsins
So,D kiss the sky and whisper to Jesus
a My, my, my, you found this, you need this
G Take a deep breath, baby, let me Din

a You lose your Gway, just take myD hand
a You're lost at Gsea then I'll comDmand your boat to me again
a Don't look too Gfar, right where you Dare, that's where I am
a G I'm your manD 
a G I'm your manD 

D They mistook my kindness for weakness
a I fucked up, I know that, but Jesus
G Can't a girl just do the best she cDan?
D Catch a wave and take in the sweetness
a Think about it, the darkness, the deepness
G All the things that make me who I Dam

D And who I am is a big time believer
That a people can change, but you don't have to leave her
When Geveryone's talking, you can make a Dstand
'Cause Deven in the dark I feel your resistance
a You can see my heart burning in the distance
GBaby, baby, baby, I'm your Dman, yeah

a You lose your Gway, just take myD hand
a You're lost at Gsea then I'll comDmand your boat to me again
a Don't look too Gfar, right where you Dare, that's where I am
a G I'm your manD 
a G I'm your manD 

a7 x4   G   D 

D Catch a wave and take in the sweetness
a7 Take Gin the sweetness, you Dwant this, you need this
a7 Are you readGy for it, are you readDy for it, are you ready for it?

Oceń to opracowanie
Kontrybucje:
Rocky
Rocky
anonim