0
0

Falling Down Lil Peep

Tekst piosenki i chwyty na gitarę

  • Chwyty na gitarę Początkujący Tonacja e
    7 ulubionych
e|-----------------|-----------------|-----------------|-----------------|
B|-1---3---1---0---|-----0-----------|-----------------|-----------------|
G|---------------2-|---2-----2-0-----|-------0---0-----|-------0---0-----|
D|-----------------|---------------2-|-----2-------2---|-----2-------2---|
A|-3-------3-------|-0-------0-------|---2-------------|---2-------------|
E|-----------------|-----------------|-0---------------|-0---------------|

e|-----------------|
B|-----0-------0---|
G|-0-0---0---------|
D|---------4-4---2-|
A|-----------------|
E|-----------------|


[Intro]
CCome let's watch the ra ain as it's falling de own

(Now let's do this one for Peep)
SCunlight on your ska in when I'm not are ound
SChit don't feel the sa ame when you're out of te own
So coCme let's watch the raa in as it's falling de own, yeah


[Refren]
CoCme let's watch the raa in as it's falling de own (falling down)
SuCnlight on your ska in when I'm not are ound ( I'm not around)
SChit don't feel the sa ame when you're out of te own (out of town)

(O-o-oh, o-oh, o-oh)
So coCme let's watch the ra ain as it's falling de own

(O-o-oh, o-oh, o-oh)


[Zwrotka]
RCain keeps falling, ta ears keep falling   e   
RCain keeps falling, ta ears keep falling   e   
Darling, your Clove is like wa alking a bed of nails  e   
And I just caCn't kea ep on fighting e   

O-o-oh, o-oh, o-oh


[Refren]
CoCme let's watch the raa in as it's falling de own (falling down)

O-o-oh, o-oh, o-oh
SCunlight on your ska in when I'm not are ound (I'm not around)

O-o-oh, o-oh, o-oh
ShCit don't feel the sa ame when you're out of te own

O-o-oh, o-oh, o-oh
So coCme let's watch the raa in as it's falling de own

O-o-oh, o-oh, o-oh


[Interlude]

His name will live, bro'
No, I goCtta, I feel hella shitty because it's like, ya
Like, if I would have known he was so cool  e   

And it's like, yo, if I would have watched interviews sooner, bro, we were so alike
CIt's unfortunate because it's like, yo, when people die,a that's when you're there, you kne ow?

'Cause your remorse kinda makes you check 'em out


[Bridge]
Darling, your lCove is like wa alking a bed of nailse   
And I just cCan't ka eep on fe ighting


[Refren]
CoCme let's watch the raa in as it's falling de own (falling down)

O-o-oh, o-oh, o-oh
SCunlight on your ska in when I'm not are ound (I'm not around)

O-o-oh, o-oh, o-oh
ShCit don't feel the sa ame when you're out of te own

O-o-oh, o-oh, o-oh
So coCme let's watch the raa in as it's falling de own

O-o-oh, o-oh, o-oh

Oceń to opracowanie
Ocena czytelników: Niczego sobie 5 głosów
Kontrybucje:
gregorius200x
gregorius200x
anonim