0
0

Save That Shit Lil Peep

Tekst piosenki i chwyty na gitarę

  • Chwyty na gitarę Początkujący
    2 ulubione
[Intro]
e|-----------------|-----------------|-----------------|-----------------|
B|-----3-----------|-----2-----------|-----3-----------|-----2-----------|
G|-----------------|-----------------|-----------------|-----------------|
D|---4-------------|---4-------------|---4-------------|---4-------------|
A|-2---------------|-0---------------|-----------------|-----------------|
E|-----------------|-----------------|-3---------------|-2---------------|

e|-----------------|-----------------|-----------------|-----------------|
B|-----3-----------|-----2-----------|-----3-----------|-----2-----------|
G|-----------------|-----------------|-----------------|-----------------|
D|---4-------------|---4-------------|---4-------------|---4-------------|
A|-2---------------|-0---------------|-----------------|-----------------|
E|-----------------|-----------------|-3---------------|-2---------------|


[Refren]
Fb uck my life, can't save that, girl
Don't Dtell me you can save that shit
GAll she want is payback
For the Fis7way I always play that shit
b You ain't getting nothing that I'm sDaying
Don't tell me you isG 
Nothing like them other motherfFis7uckers
I can make you rich b (I can make you rich)
I can make you this, baDby, I can make you thatG 
I can take you there, but bFis7aby, you won't make it back b   
Growing sick of this and ID don't wanna make you sadG 
Do I make you scared?Fis7 Baby, won't you take me back? b     D 

GNothing like them other motherFis7fuckers
I can make you rich b (I can make you rich)  D 
GNothing like them other motherFis7fuckers
I can make you rich (I can make you rich)


[Refren]
b Fuck my life, can't save that, girl
Don't tDell me you can save that shit
GAll she want is payback
For the Fis7way I always play that shit
b You ain't getting nothing that I'm sDaying
Don't tell me you isG 
Nothing like them other motherFis7fuckers
I can make you rich b (I can make you rich)
I can make you this, bDaby, I can make you thatG 
I can take you there, but bFis7aby, you won't make it back
b Growing sick of this and DI don't wanna make you sadG 
Do I make you scared? Fis7Baby, won't you take me back?


[Instrumental]
b D G Fis7


[Bridge]
b Down another lDonely road, I goG 
Just another Fis7lonely road, oh b   
I just wanna know,D I just gotta know G 
Do you wanna glow? Fis7Baby, we could glow


[Refren]
b Fuck my life, can't save that, girl
Don't tDell me you can save that shit
GAll she want is payback
For the wFis7ay I always play that shit
b You ain't getting nothing that I'm sDaying
Don't tell me you isG 
Nothing like them other motherFis7fuckers

I can make you rich (I can make you rich)
b I can make you this, bDaby, I can make you that
GI can take you there, but baFis7by, you won't make it back
b Growing sick of this and DI don't wanna make you sad
GDo I make you scared? BFis7aby, won't you take me back?  b     D 


[Outro]
GDo I make you scared? BFis7aby, won't you take me back? b     D 
GNothing like them other motherFis7fuckers
I can make you rich (I can make you rich)
b D G Fis7

Oceń to opracowanie
Ocena czytelników: Słaby 3 głosy
Kontrybucje:
gregorius200x
gregorius200x
anonim