0
0

Pushing Me Away Linkin Park

Artist: Linkin Park
Song: Pushing Me Away
Album: Hybrid Theory
Tuning: Db, Ab, Db, Gb, Bb, Dis
Tabbed By: pras@optonline.net

Verse (Clean) (Guitar 1)
Eb|-<12>-----<12>-----|---------<12>------|------------------|------------------|
Bb|-------------------|-----<7>------<12>-|---------<12>-----|----------<7>-----|
Gb|------<7>----------|-<5>---------------|-----<7>----------|-<12>---------<7>-|
Db|-------------------|-------------------|-<7>--------------|------<7>---------|
Ab|---------------<7>-|-------------------|--------------<7>-|------------------|
Db|-------------------|-------------------|------------------|------------------|

Chorus [Distortion] (Guitar 1)
Dis|--------------------------|--------------------|--------------|-----------------------------|
B |--------------------------|--------------------|--------------|-----------------------------|
Gb|-11-11-11-11-11-11-11-11/-|-12-12-12-12-12-12/-|-16-16-16-16-|-4-4-4-4-4-4-4-4-4-4-4-4-4-4-|
Db|-X--X--X--X--X--X--X--X-/-|-X--X--X--X--X--X-/-|-X--X--X--X--|-X-X-X-X-X-X-X-X-X-X-X-X-X-X-|
Ab|-9--9--9--9--9--9--9--9-/-|-10-10-10-10-10-10/-|-14-14-14-14-|-2-2-2-2-2-2-2-2-2-2-2-2-2-2-|
Db|--------------------------|--------------------|--------------|-----------------------------|

(Guitar 2)
Dis|--------------------------|--------------------|--------------|-----------------------------|
B |--------------------------|--------------------|--------------|-----------------------------|
Fis|--------------------------|--------------------|--------------|-----------------------------|
Db|-2--2--2--2--2--2--2--2/--|-10-10-10-10-10-10-|-5--5--5--5/--|-7-7-7-7-7-7-7/9-9-9-9-9-9-0-|
Ab|-2--2--2--2--2--2--2--2/--|-10-10-10-10-10-10-|-5--5--5--5/--|-7-7-7-7-7-7-7/9-9-9-9-9-9-0-|
Db|-2--2--2--2--2--2--2--2/--|-10-10-10-10-10-10-|-5--5--5--5/--|-7-7-7-7-7-7-7/9-9-9-9-9-9-0-|

Bridge [Distortion] (Guitar 1)
Dis|--------------------------|--------------------|--------------|-----------------------------|
B |--------------------------|--------------------|--------------|-----------------------------|
Gb|-11-11-11-11-11-11-11-11/-|-11-11-11-11-11-11/-|-16-16-16-16-|-4-4-4-4-4-4-4-4-4-4-4-4-4-4-|
Db|-X--X--X--X--X--X--X--X-/-|-X--X--X--X--X--X-/-|-X--X--X--X--|-X-X-X-X-X-X-X-X-X-X-X-X-X-X-|
Ab|-9--9--9--9--9--9--9--9-/-|-9--9--9--9--9--9-/-|-14-14-14-14-|-2-2-2-2-2-2-2-2-2-2-2-2-2-2-|
Db|--------------------------|--------------------|--------------|-----------------------------|

(Guitar 2)
Dis|--------------------------|--------------------|--------------|-----------------------------|
B |--------------------------|--------------------|--------------|-----------------------------|
Fis|--------------------------|--------------------|--------------|-----------------------------|
Db|-10-10-10-10-10-10-10-10/-|-12-12-12-12-12-12-|-7--7--7--7/--|-4-4-4-4-4-4-4/5-5-5-5-5-5-9-|
Ab|-10-10-10-10-10-10-10-10/-|-12-12-12-12-12-12-|-7--7--7--7/--|-4-4-4-4-4-4-4/5-5-5-5-5-5-9-|
Db|-10-10-10-10-10-10-10-10/-|-12-12-12-12-12-12-|-7--7--7--7/--|-4-4-4-4-4-4-4/5-5-5-5-5-5-9-|


Oceń to opracowanie
Kontrybucje:
Kurt Cobain
Kurt Cobain
anonim