Espana forever Maanam

Tekst piosenki

  • Tekst piosenki Losseh
    2 oceny
Intro

E1-------5--8---5------7-------------5--7---5-------6-----------------|
H2-----6----------6----6-----------6----------6-----6-----------------|
G3----------------- 7--7----------------------------3-----------------|
D4--0------------------0--------0-------------------0-----------------|
A5--------------------------------------------------------------------|
E6--------------------------------------------------------------------|


E1---------1-----------3----5----3---------3--------1-----------------|
H2-------3-----3-------3----3----3---------3--------3-----------------|
G3-----3---------3-----3----3----2---------2--------2-----------------|
D4--0------------------0---(0)---0---------0--------0-----------------|
A5--------------------------------------------------------------------|
E6--------------------------------------------------------------------|


Część 1.
E1--10h12-10h12-10----10h12----12b13-12-10----------------------------|
H2-----------------10-------10----------------------------------------|
G3--------------------------------------------------------------------|
D4--------------------------------------------------------------------|
A5--------------------------------------------------------------------|
E6--------------------------------------------------------------------|

E1--10h12-10h12-10----10h12-------------------------------------------|
H2-----------------10-------10-11b13-11-------------------------------|
G3--------------------------------------------------------------------|
D4--------------------------------------------------------------------|
A5--------------------------------------------------------------------|
E6--------------------------------------------------------------------|

E1--------------------------------------------------------------------|
H2---10h11p10----------10h11p10---------------------------------------|
G3------------12-12~~-----------12-12------10-12-11b12-14-10----------|
D4--------------------------------------------------------------------|
A5--------------------------------------------------------------------|
E6--------------------------------------------------------------------|


Część 2.
E1---------------------------------------------------------------------------|
H2---------------------------------------------------------------------------|
G3------------------------------10--9h10p9--7-7-9h10p9-7-7~~-----------------|
D4----------------------12--11-----------------------------------------------|
A5--10~~----10--12--13-------------------------------------------------------|
E6---------------------------------------------------------------------------|


E1-------------------------------10-12h13~-12h13p12-10-10--13-10s12-10-10~~--|
H2----------------------------11---------------------------------------------|
G3-------------------------10------------------------------------------------|
D4----------------------12---------------------------------------------------|
A5--10~~~~----10--12-13------------------------------------------------------|
E6---------------------------------------------------------------------------|


Część 3.
E1---------------------------------------------------------------------------|
H2--5h6p5----5h6p5-----------------------------------------------------------|
G3--------7--------7---9h7-5-5h7p5-5----5-7-8b9---7-5---3-3--3h5p3~~---------|
D4---------------------------------------------------------------------------|
A5---------------------------------------------------------------------------|
E6---------------------------------------------------------------------------|

E1--------------------------6--5h6p5------------------------------|
H2------------------------4----------8-6-5------------------------|
G3---3-5-6b7--5-3-----0-3------------------7-6-7-7s9--------------|
D4------------------1---------------------------------------------|
A5----------------------------------------------------------------|
E6----------------------------------------------------------------|

E1---------------------------------------------------------------------------|
H2--5h6p5----5h6p5-----------------------------------------------------------|
G3--------7--------7---9h7-5-5h7p5-5----5-7-8b9---7-5---3-3--3h5p3~~---------|
D4---------------------------------------------------------------------------|
A5---------------------------------------------------------------------------|
E6---------------------------------------------------------------------------|

E1--------------------------6--5h6p5------------------------------|
H2------------------------4----------8-6-5------------------------|
G3---3-5-6b7--5-3-----0-3------------------7-6--------------------|
D4------------------1--------------------------8-6----------------|
A5----------------------------------------------------------------|
E6----------------------------------------------------------------|

Zapętlij :)




Oceń to opracowanie
Ocena czytelników: Fatalny 2 głosy
Kontrybucje:
Losseh
Losseh
anonim