Wszyscy chcą kochać Maryla Rodowicz

  • Chwyty na gitarę Początkujący Tonacja A
    87 ulubionych
  • Tekst piosenki mateuszshaggy
    3 ulubione
---------------------------------------------|---------------------------------------------|
---------------------------------------------|---------------------------------------------|
---------------------------------------------|---------------------------------------------|
----4--2--0--4-----2--0--------2--------|------2--2--2----4------2-----0---2--0-|
--------------------------------------4-----|---------------------------------------------|
---------------------------------------------|---------------------------------------------|

---------------------------------------------|---------------------------------------------|
---------------------------------------------|---------------------------------------------|
---------------------------------------------|---------------------------------------------|
------------0--------0----------0----------|-------------4- 2--2---0---2--2---------|
---2---2--------2------------2--------2--|---------------------------------------------|
---------------------------------------------|---------------------------------------------|

---------------------------------------------|
---------------------------------------------|
---------------------------------------------|
------2--2--2----4------2-----0---2--0-|
---------------------------------------------|
---------------------------------------------|

---------------------------------------------|---------------------------------------------|
---------------------------------------------|---------------------------------------------|
---------------------------------------------|---------------------------------------------|
------------0--------0----------0----------|------4--2--2--------0---2--0--2---0---|
---2---2--------2------------2--------2--|---------------------------------------------|
---------------------------------------------|---------------------------------------------|

---------------------------------------------|--------------------------------------------|
---------------------------------------------|--------------------------------------------|
--2-----------------------------------------|---2---0-----------------------------------|
--------------0----------0------------------|---------4-----2----0---------0--2--4--|
---------------------------------------------|----------------------------2--------------|
---------------------------------------------|--------------------------------------------|

---------------------------------------------|---------------------------------------------|
---------------------------------------------|---------------------------------------------|
---------------------------------------------|---------------------------------------------|
-----------4--------4-----------------------|-----4---4--2--2---0--2--0-------------|
---------------------------------------------|---------------------------------------------|
---------------------------------------------|---------------------------------------------|

---------------------------------------------|
---------------------------------------------|
----------2---------------------------------|
------------------0-------------------------|
---------------------------------------------|
---------------------------------------------|

---------------------------------------------|---------------------------------------------|
--2-----0-----------------------------------|--------------------------------------------|
-----------4---2---0------0-----2---4----|---------4----------4----------------------|
---------------------------------------------|---------------------------------------------|
---------------------------------------------|---------------------------------------------|
---------------------------------------------|---------------------------------------------|

---------------------------------------------|---------------------------------------------|
---------------------------------------------|---------------------------------------------|
---------------------------------------------|---------------------------------------------|
--4-----2---2------0--2--0--------------|----0----------------------0-------4-------|
---------------------------------------------|----------2-----------2-------2------------|
---------------------------------------------|---------------------------------------------|

---------------------------------------------|
---------------------------------------------|
---------------------------------------------|
----------2--------2------------------------|
---------------------------------------------|
---------------------------------------------|
Starałem się w miarę równo rozpisywać cyfry ;-) Miłej nauki :D


Oceń to opracowanie
Kontrybucje:
mateuszshaggy
mateuszshaggy
anonim