0
0

Bitwa Mechanicy Shanty

zwrotka:
E1 |-e0-----0-----|-D------------|-C------------|-a-----------|
H2 |----0--------|-3-----3-----|-1--3-1--0---|------------|
G3 |-------------|----4--------|-------------|-2----------|
Dsus4 |-------------|-------------|-------------|------------|
A5 |-------------|-------------|-------------|------------|
E6 |-------------|-------------|-------------|------------|

E1 |-e------------|---D----------|-G-----------H7-|------------|
H2 |-------0-----|-------------|------------0|------------|
G3 |-0--2-----0--|---2--2-0----|-0--0--0--2--|------------|
D4 |-------------|-----------4-|-------------|------------|
A5 |-------------|-------------|-------------|------------|
E6 |-------------|-------------|-------------|------------|

E1 |-e0-----0-----|-D------------|-C------------|-a-----------|
H2 |----0--------|-3-----3-----|-1--3-1--0---|------------|
G3 |-------------|----4--------|-------------|-2----------|
Dsus4 |-------------|-------------|-------------|------------|
A5 |-------------|-------------|-------------|------------|
E6 |-------------|-------------|-------------|------------|

E1 |-e------------|---D----------|-G-----------H7-|------------|
H2 |-------0-----|-------------|-------------|-0----------|
G3 |-0--2-----0--|---2--2-0----|-0--0--0--2--|----2--0----|
D4 |-------------|-----------4-|-------------|----------4-|
A5 |-------------|-------------|-------------|------------|
E6 |-------------|-------------|-------------|------------|

refren:
E1 |-G------------|-D------------|-e------------|-h-----------|
H2 |-------0-----|-------------|-------------|------------|
G3 |-0-----------|-2--0--------|-------------|------------|
D4 |-------------|-------4--0--|-2-----0-----|----0-------|
A5 |-------------|-------------|-------------|-2----------|
E6 |-------------|-------------|-------------|------------|

E1 |-C------------|-D------------|-e------------|
Hsus2 |-------------|-------------|-------------|
G3 |-----0-------|----2--------|-------------|
D4 |-2-4---------|-4-----4--0--|-2-----------| X2
A5 |-------------|-------------|-------------|
E6 |-------------|-------------|-------------|

1.
eOkręt nasz Dwpłynął w mgłę Ci fregaty adwie
Popłyenęły Dnaszym kursem Gby nie zgubić H7się.
ePotem szkwał Dwypchnął nas Cpoza mleczny apas
I nikt ewtedy Dnie przypuszczał, Gże fregaty H7śmierć nam niosą.

Ref.
   GCiepła Dkrew poleje esię struhgami,
   CWygra ten Dkto utrzyma eship.
   GW huku dział Dktoś przykryje esię fahlami,
   CJak da Bóg Docalimy ebryg.

2.
eNagły huk w Duszach grał i jCuż atak trawał,
To freegaty Duzbrojone rzGędem w setkę dH7ział.
eCzarny dym sDpowił nas, przyCszedł śmierci cazas.
Kerzyk i lament mDych kamratów, przerGywany ogniem kH7atów.

Ref.
   GCiepła Dkrew poleje esię struhgami,
   CWygra ten Dkto utrzyma eship.
   GW huku dział Dktoś przykryje esię fahlami,
   CJak da Bóg Docalimy ebryg.

3.
Poecisk nasz trDafił w maszt, uCsłyszałem atrzask,
To sterbeurtę rDozwaliła jedGna z naszych sH7alw.
"Żaegiel staw" kDrzyknął ktoś, zCnów piratów załość,
eBo od rufy nDam powiało, Ga fregatom w mH7ordę wiało.

Ref.
   GCiepła Dkrew poleje esię struhgami,
   CWygra ten Dkto utrzyma eship.
   GW huku dział Dktoś przykryje esię fahlami,
   CJak da Bóg Docalimy ebryg.

4.
eZ fregat dwóch tDylko ta pierCwsza w pogoń sazła,
Wenet abordaż Drozpoczęli gGdy dopadli H7nas.
eSzyper ich dzDiury dwie zrCobił w swoim danie,
Neie pomogło tDo psubratom, Greszta z rei zH7wisa za to.

Ref.
   GCiepła Dkrew poleje esię struhgami,
   CWygra ten Dkto utrzyma eship.
   GW huku dział Dktoś przykryje esię fahlami,
   CJak da Bóg Docalimy ebryg.

5.
ePo dziś dzień taDmtą mgłę i fCregaty dwaie,
Kiedy neoc zaDmyka oczy wiGdzę w swoim śH7nie.
eTamci co śDpią na dnie, uCśmiechają saię,
eŻe ich straszną Dśmierć pomścili brGacia, którzy zwycH7iężyli

Ref.
   GCiepła Dkrew poleje esię struhgami,
   CWygra ten Dkto utrzyma eship.
   GW huku dział Dktoś przykryje esię fahlami,
   CJak da Bóg Docalimy ebryg.


Oceń to opracowanie
Ocena czytelników: Dobry 233 głosy
anonim
  • Łukasz Kiełczewski
    bicie bardzo szybkie dół dół góra góra dół góra
    · Zgłoś · 4 miesiące temu
  • Łukasz Kiełczewski
    gdyby nie to samo co w szkole podstawowej nr gr he www be grę na się w szkole podstawowej nr gr he www be grę na się w szkole podstawowej nr gr he www be grę na się w szkole podstawowej
    · Zgłoś · 5 miesięcy temu
  • Łukasz Kiełczewski
    jestem słaby w graniu na ukulele
    · Zgłoś · 6 miesięcy temu
  • Wojciech Piszczek
    W temacie tekstu: nie wiem jaki jest oryginał, bo nie wiem kto jest autorem i jaka jest historia tego tekstu, ale co do sensu IMO dużo bardziej pasuje utrzymanie szyku i wiatr wiejący w mordę (A nie coś co "dało" w mordę). Ta posenka jest prostym zapisem bitwy morskiej, która to jest de facto pewną grą o utrzymanie odpowiedniej pozycji względem wroga i względem wiatru. Stąd utrzymanie odpowiedniego szyku miałoby zagwarantować wygraną.
    · Zgłoś · 6 miesięcy temu
  • testerkekster
    Like it!
    · Zgłoś · 11 miesięcy temu
  • Stanislo K.
    Jakoś automatycznie przy grze wyszło mi bicie:
    (bas)▼-▼ (wszystkie)▼-▼▲
    na pierwszy akord i
    (bas)▼▲▼ (wszystkie)▼-▼▲
    na kolejny
    i ponownie tak samo. A wam jakie pasuje?
    · Zgłoś · 1 rok temu
  • Kacper
    Jackiewicz
    Super
    · Zgłoś · 3 lata temu
  • Kacper
    Juszczu
    W tabulaturze zamiast grać ostanie "4 57" lepiej zagrać 402 na strunie D.
    · Zgłoś · 3 lata temu
  • Kacper
    Trassus
    · Zgłoś · 3 lata temu
  • Kacper
    AnglERz
    WSZYSCY CO TU SÄ„, W TEKSCIE JEST SZYK NIE SHIP, W ORYGINALNYM TEKSCIE W ÅšPIEWNIKACH JEST SZYK.
    · Zgłoś · 4 lata temu
Wszystkie komentarze