0
0

Chłopcy Myslovitz

intro gitara I

e|-12--8---8---8---8---8---8---8---|-12--8---8---8---8---8---8---8---|
B|-8---8---8---8---8---8---8---8---|-8---8---8---8---8---8---8---8---|
G|---------------------------------|---------------------------------|
D|---------------------------------|---------------------------------|
A|---------------------------------|---------------------------------|
E|---------------------------------|---------------------------------|

intro gitara II
e|---------------------------------|---------------------------------|
B|---------------------------------|---------------------------------|
G|---------------------------------|---------------------------------|
D|-10--10--x-x-x-x-10--10--x-x-x-x-|-10--10--x-x-x-x-10--10--9-9-9-9-|
A|-10--10--x-x-x-x-10--10--x-x-x-x-|-10--10--x-x-x-x-10--10--9-9-9-9-|
E|-8---8---x-x-x-x-8---8---x-x-x-x-|-8---8---x-x-x-x-8---8---7-7-7-7-|



Piosenka jest grana na akordach C g B d . Solo pierwszej gitary jest grane non-stop.



Wieczorami chłopcy wychodzą na ulicę


Szukają czegoś, co wypełni im czas


Rzucają kamieniami w koła samochodów


I patrzą na spódnice dziewczyn, które nie chcą ich znać





Wieczorami chłopcy wychodzą na ulicę,


Bo wieczorami nie widać szarości


Nie widać brudnych ulic a latarnie nie świecą


I można udawać, że można na spacer pójść





Wieczorami chłopcy wychodzą na ulicę


Marzą o życiu w dalekich krainach


Spoglądając w puste lornetki butelek


dyskutują o amerykańskich filmach





Wieczorami chłopcy wychodzą na ulicę


Siadają na chodniku i palą jointy


Robią wszystko żeby stąd uciec


Kiedy wreszcie mogą, to wtedy nie mogą się ruszyć


Oceń to opracowanie
Ocena czytelników: Doskonały 3 głosy
Kontrybucje:
rossi
rossi
anonim