0
0

nocnym pociągiem aż do końca świata Myslovitz

Tekst piosenki i chwyty na gitarę

  • Chwyty na gitarę Robert
    49 ulubionych
Wstęp i solówki:
a C F
d e a

Komputera szmer i ekranu blask a C F
Tu realny świat nie ma żadnych szans d e a
Czy to dziki sex czy to w piłkę gra a C F
Tutaj przecież ma dużo lepszy smak niż tam

W internecie flirt hasło „Biały miś” a C F
Bez wysiłku tak możesz być kim chcesz d e a
Biały proszek znów dziś pomoże żyć a C F
Nie ma jutra i nie będzie jutro też d e a

Ref.:
Lecz czasem dziwny głos przed siebie każe biec C G e F
I na powietrze wyjść gdy pada deszcz
Przed siebie ciągle biec
Aż do utraty tchu
Nie wracaj nigdy tu

Wciąż gadżetów stos zmienia życie swe
Powiedz teraz co chciałbyś zrobić z nim
Gdy zamienisz już rzeczywistość w sen
Nie odnajdziesz się
Nie odnajdzie ciebie nikt

Ref.:
Lecz czasem dziwny głos przed siebie każe biec
I na powietrze wyjść gdy pada deszcz
Przed siebie ciągle biec
Aż do utraty tchu
Nie wracaj nigdy tu


E|-----------10--8-----------|-----------10--8----------|
B|--------------------10-----|--------------------10----|
G|--7--7--7------------------|--7--7--7-----------------|
D|---------------------------|--------------------------|
A|---------------------------|--------------------------|
E|---------------------------|--------------------------|



E|-----------10--8----------|--------------------|-----------10--8----------|
B|--------------------10----|--10/---10/---10~---|--------------------10----|
G|--7--7--7-----------------|--------------------|--7--7--7-----------------|
D|--------------------------|--------------------|--------------------------|
A|--------------------------|--------------------|--------------------------|
E|--------------------------|--------------------|--------------------------|



E|-----------10--8----------|-----------10--8----------|--------------------|
B|--------------------10----|--------------------10----|--10/---10/---10~---|
G|--7--7--7-----------------|--7--7--7-----------------|--------------------|
D|--------------------------|--------------------------|--------------------|
A|--------------------------|--------------------------|--------------------|
E|--------------------------|--------------------------|--------------------|


Oceń to opracowanie
Ocena czytelników: Niczego sobie 3 głosy
Kontrybucje:
Robert
Robert
anonim
  • Kacper
    bicie
    proszę podajcie jakie bicie
    · Zgłoś · 6 lat temu
  • Kacper
    anna
    hmmm...zauwazylam drobme zmiany w tekscie
    · Zgłoś · 15 lat temu
  • Kacper
    rogI
    tą solowke na pocztku gra sie bardzo łatwo-chwyty jak w zwrotkach z tym ze sie szarpie struny (d4,g3,h2) x2 i zmiana chwytu. najwazniezszy jest rytm,ale łatwo go wyczaic. powodzenia ;D
    · Zgłoś · 15 lat temu
  • Kacper
    Gesior
    niewim czemu (moze wina rytmu) ale jak gram to z tabulatury to niebrzmi jak przawdziwe(oczywiscie nigdy tak niebedie brzmiec ale wogole nieprzypomina (chyba wiecie oco chodzi))
    · Zgłoś · 15 lat temu
  • genial
    świetne i bezbłedne :)
    · Zgłoś · 15 lat temu