0
0

Zamiana Myslovitz

Tekst piosenki i chwyty na gitarę

  • Chwyty na gitarę Ramdan-koniec muru.
    6 ulubionych
eSpójrz, jak wygląda moja tHsus4warz 
Czy został chociaż śalad z człowieka, którego znasz
Zobacz jak szybko zmieniam się
Jak mi dodaje lat każde słowo twe
Nie widzę, nie słyszę nic
Przestaje odczuwać nawet twój
Śmiech już nie dotyka mnie
I wiem, ze każdy ból pomaga wznosić mój własny mur
Kolejna lista skarg
Czy kłamstwo to, czy żart, wiem to banalne jest

Ref:
Ale Gja, nim mnie pożre lęDk
Strzelę sobie w łFeb, w ta piękna nCoc

I znów zdławię pusty śmiech
Strzelę sobie w lub, już odbezpieczam następna butelkę


Wiedz, wiedz, ze nie poddam się
Dopóki czuje gdzieś płynąca we mnie krew

Póki smak życia w ustach mam
Póki zapach traw wciąż ogłusza mnie

Nie widzę, nie słyszę nic
Przestaje odczuwać nawet twój

Nie widzę, nie słyszę nic
Przestaje odczuwać nawet ból


Ref:
Ale ja, nim mnie pożre lęk
Strzelę sobie w lub, w ta piękna noc
I znów zdławię pusty śmiech
Strzelę sobie w lub, już odbezpieczam następna butelkę
I znów tak jak nieraz już
Znów to zrobię, wiem wyjdę z siebie i nikt nie dosięgnie mnie
Wbije nowy cierń
Strzelę sobie w lub, już odbezpieczam następna butelkę

Ale ja, nim mnie pożre lek
Strzelę sobie w lub, w ta piękna noc
Tak wiem, znowu matka noc ukołyszę mnie
Gdy butelki szkłem strzelę sobie w łeb



Intro i zwrotka wyglądaja tak:

e Hsus4

E||----------------------------------|----------------------------------|
B||--0-0-0-0-0-0-0-0-0-0-0-0-0-3-3-3-|--0-0-0-0-0-0-0-0-0-0-0-0-0-3-3-3-|
G||--0-0-0-0-0-0-0-0-0-0-0-0-0-0-0-0-|--4-4-4-4-4-4-4-4-4-4-4-4-4-4-4-4-|
D||--2-2-2-2-2-2-2-2-2-2-2-2-2-2-2-2-|--4-4-4-4-4-4-4-4-4-4-4-4-4-4-4-4-|
A||----------------------------------|----------------------------------|
E||----------------------------------|----------------------------------|

a a

E||----------------------------------|----------------------------------||
H||--1-1-1-1-1-1-1-1-1-1-1-1-1-3-3-3-|--1-1-1-1-1-1-1-1-1-1-1-1-1-3-3-3-||
G||--2-2-2-2-2-2-2-2-2-2-2-2-2-2-2-2-|--2-2-2-2-2-2-2-2-2-2-2-2-2-2-2-2-||
D||--2-2-2-2-2-2-2-2-2-2-2-2-2-2-2-2-|--2-2-2-2-2-2-2-2-2-2-2-2-2-2-2-2-||
A||----------------------------------|----------------------------------||
E||----------------------------------|----------------------------------||





Oceń to opracowanie
Ocena czytelników: Doskonały 2 głosy
anonim