0
0

Lake of fire Nirvana

Tekst piosenki i chwyty na gitarę

  • Chwyty na gitarę Sad-spirit
    18 ulubionych

[Intro]

g F5 B g C~ B G5 F5 B

C F5 G5 F5 g G5


[ref.]

G5 Where do bad folF5ks go when B5 they die

G5 C~ B5
They don't go to heaven where the angels fly

G5Go to a lake of F5fire and B5 fry

C5See 'em again till theF5 Fourth ofG5 July

F5 B5 G5 F5 G5


[Zwrotka]

d I knew a lady  B/F Came from Duluth

D5Bit d by a dog with a rabid tooth

She d went to her grave just B/F a little too soon

C5/GFlew and laid down on the D5/Ayellow d moon


[słowa]

chorus
Where do bad folks go when they die
They don't go to heaven where the angels fly
Go to a lake of fire and fry
See 'em again till the Fourth of July

verse 1
I knew a lady Came from Duluth
Bit by a dog with a rabid tooth
She went to her grave just a little too soon
Flew and laid down on the yellow moon

verse 2
People cry People moan
Look for a dry place to call their home
Try to find some place to rest their bones
While the angels and the devils try to make their own



[e------------------------------------------------------]B-------11----11----11----11----11\----6---6--6/8------
G--3/10----10----10----10----10------5---5---5-/7----0-
D------------------------------------------------------
A------------------------------------------------------
E------------------------------------------------------


*[Solo]*

e|-------3---------3---------------------------|-----------
B|--2/3-----3--6^------6-----------------------|-----------
G|------------------------5--3-----------------|-----------
D|------------------------------5--3-----------|-----------
A|------------------------------------5--4--3--|-----------
E|---------------------------------------------|-6--3--3---

---------------------------------|----------------------------------|
------------------------3^-------|---------6~----6~-----------------|
------------------------3^-------|----3/7------7~--7\5--3^----------|
---------------3--3/5--------5---|-------------------------5--5--3--|
------3--4--5--------------------|---------------------------------5|
---6-----------------------------|----------------------------------|

----------------------------|-----------------3-------------|
----------------------------|-----6--------/3---3-6---3-----|
----------------------------|-/7-------7\-----------5---3-5-|
----3-----3-----------------|-------------------------------|
--5----5----5-3-------------|-------------------------------|
----------------6-3--3--3---|-------------------------------|

--------------------------|-----------------------------|
------------3^------------|-3^-------3^-----------------|
------------3^------------|-3^-------3^-----------------|
----3----5-------3--------|-----5--------5-3------------|
-------------------5-3/5--|------------------5-4-3------|
--------------------------|------------------------6-3--|

--------------------------|
--------------------------|
--------------------------|
-----------3-3/5----------|
-----3-4-5-------3--------|
-3-6----------------6--3--|

heh, no, powinno być chyba nie zle, nie nie obiecuję ^.^ jak macie poprawki, to piszcie...


Oceń to opracowanie
Ocena czytelników: Niczego sobie 3 głosy
Kontrybucje:
Sad-spirit
Sad-spirit
anonim