0
0

Smells Like Teen Spirit (tonacja e-mol) Nirvana

Tekst piosenki i chwyty na gitarę

  • Chwyty na gitarę Początkujący
    17 ulubionych
Cyferka 5 przy każdym akordzie sugeruje,
że jest to power chord (3 struny z akordu barowego).
Poniżej schemat akordów:

E5    [E-A-D-G-B-e]0-2-2-x-x-x
A5 (0)0-2-2-x-x
G5 3-5-5-x-x-x
C5 (3)3-5-5-x-x

PIOSENKA JEST ZAPISANA W TONACJI O PÓŁ TONU NIŻSZEJ NIŻ ORGINAŁ
JEŚLI CHCESZ OSIĄGNĄĆ BRZMIENIE JAK W ORGINALE:
-> załóż kapodaster na 1. progu lub
-> graj akordy o pół tonacji wyżej (czyli F5 B5 Gis5 Cis5)

[Wstęp/riff]
E5 A5 G5 C5 x4


[Wstęp do zwrotki]
E5 A5 G5 C5 x2


[Pierwsza zwrotka]
E5 Load uA5p on gunG5s,
BC5ring your fE5riends.
It's fA5un to lG5ose
And tC5o pretE5end.
She's oA5-ver-boG5red,
SC5elf-assuE5red,
Oh A5no, I kG5now a dC5irty wE5ord.


[Wstęp do refrenu]
HellA5o, hellG5o, hellC5o, how loE5
HellA5o, hellG5o, hellC5o, how loE5
HellA5o, hellG5o, hellC5o, how loE5
HellA5o, hellG5o, hellC5


[Refren]
With the liE5ghts out,
A5It's less G5dangerous,
C5Here we aE5re now,
A5EntertaiG5n us,
C5I feel E5stupid
A5And contG5agious,
C5Here we aE5re now,
A5EntertaiG5n us,
C5A mulE5atto,
A5An albG5ino,
C5A mosqE5uito,
A5My libG5ido,
C5 Yeah!

Hey!
e|-----------------------------------------|
B|-----------------------2-2-0-0-----------|
G|--1-1-1-2-2--2^--1-1-1-2-2-0-0-1---------|
D|--2-2-2-3-3------2-2-2-2-2-0-0-2---------| x2
A|--2-2-2-3-3------2-2-2---------2---------|
E|-----------------------------------------|


[Przejście]
E5 A5 G5 C5 x2


[Druga zwrotka]
E5 I'm wA5orse at
wG5hatC5 I do E5best
And fA5or this G5gift
I C5feel bE5lessed
Our lA5ittle gG5roup
hasC5 always E5been
And A5always G5will
unC5til the eE5nd


[Wstęp do refrenu]
HellA5o, hellG5o, hellC5o, how loE5
HellA5o, hellG5o, hellC5o, how loE5
HellA5o, hellG5o, hellC5o, how loE5
HellA5o, hellG5o, hellC5


[Refren]
With the liE5ghts out,
A5It's less G5dangerous,
C5Here we aE5re now,
A5EntertaiG5n us,
C5I feel E5stupid
A5And contG5agious,
C5Here we aE5re now,
A5EntertaiG5n us,
C5A mulE5atto,
A5An albG5ino,
C5A mosqE5uito,
A5My libG5ido,
C5 Yeah!

Hey!
e|-----------------------------------------|
B|-----------------------2-2-0-0-----------|
G|--1-1-1-2-2--2^--1-1-1-2-2-0-0-1---------|
D|--2-2-2-3-3------2-2-2-2-2-0-0-2---------| x2
A|--2-2-2-3-3------2-2-2---------2---------|
E|-----------------------------------------|


[Solo]

e|-------------------------------------|
B|-------------------------------------|
G|---7-9---7-9-7-5-4-5-4---------------|
D|-9-----5---------------7-5-7-9-7-5-4-| x2
A|-------------------------------------|
E|-------------------------------------|

e|----------------------|
B|----------------------|
G|----------------------|
D|-5-4--5-4--5-4--5-4---| x4
A|--------------------7-|
E|----------------------|


[Przejście]
E5 A5 G5 C5 x2


[Trzecia zwrotka]
E5 And A5I forgG5et
just wC5hy I tE5aste
Oh yA5eah, I G5guess
it C5makes me sE5mile
I fA5ound it G5hard,
it's C5hard to E5find
Oh wA5ell, whaG5tever,
C5nevermE5ind


[Wstęp do refrenu]
HellA5o, hellG5o, hellC5o, how loE5
HellA5o, hellG5o, hellC5o, how loE5
HellA5o, hellG5o, hellC5o, how loE5
HellA5o, hellG5o, hellC5


[Refren]
With the liE5ghts out,
A5It's less G5dangerous,
C5Here we aE5re now,
A5EntertaiG5n us,
C5I feel E5stupid
A5And contG5agious,
C5Here we aE5re now,
A5EntertaiG5n us,
C5A mulE5atto,
A5An albG5ino,
C5A mosqE5uito,
A5My libG5ido,


[Zakończenie]
A deE5nial,A5 a deG5nialC5
A deE5nial,A5 a deG5nialC5
A deE5nial,A5 a deG5nialC5
A deE5nial,A5 a deG5nialC5
A deE5nial


Oceń to opracowanie
Ocena czytelników: Dobry 17 głosów
Kontrybucje:
Viktorjan
Viktorjan
anonim
  • Kacper
    gitarzystka 0306
    To nie są chwyty i bicie do tej piosenki ! Polecam filmiki na yt krok po kroku (co prawda nie jest to najłatwiejsza piosenka ale z czasem nawet najbardziej oporny uczeń jej sprosta, tylko trzeba być systematycznym) powodzenia :)
    · Zgłoś · 5 lat temu
  • Kacper
    123
    tak sie nie gra tej piosenki pozdawiam :)
    · Zgłoś · 5 lat temu
  • Kacper
    Majonezh
    A czy C-dur może być barowe?
    · Zgłoś · 7 lat temu