0
0

Niech mu gwiazdka pomyślności Piosenki biesiadne

Tekst piosenki i chwyty na gitarę

  • Chwyty na gitarę Początkujący
    34 ulubione
E ---------------------------------------------------------------------
H ---------------------------------------------------------------------
G ---------------------------------------------------------------------
D --------0--0--0--0---------------------------------------------------
A -----2---------------2--------7--10--7--7--5----7--10--7--7--5-------
E --3---------------------3--8--------------------8--------------------


GNiech mu gwiazdkaG7 pomyślności C(nigdy nie zaGgaśnie) x2


E ---------------------------------------------------------------------------
H ---------------------------------------------------------------------------
G ---------------------------------------------------------------------------
D ----------------------------------------------------------------2--5--3----
A -3-3-7-3-2-2-5-2-0-2-3-7-7-5-3-3-7-3-2-2-5-2-0-2-3-------------------------
E ---------------------------------------------------------------------------

A kto zD7 nami nieG wypijeC niech sięD7 pod stółG skryje x2


Oceń to opracowanie
Ocena czytelników: Niczego sobie 16 głosów
anonim