0
0

Nie Bój Się, Wypłyń Na Głębię Piosenki Religijne

Tekst piosenki i chwyty na gitarę

  • Chwyty na gitarę Początkujący
    93 ulubione
Nie bój Dsię wyGpłyń na gAłębie
GJeste przy Tobie AChrystus


E||--------------------||--------------------|---------------------|---------------------|
B||--------------------||--------------------|---------------------|---------------------|
G||--------------------||*-------------------|-----------0----0----|---------------------|
D||----------0----2----||*--4----------------|------4--------------|--4----2--2----------|
A||--------------------||--------------------|---------------------|---------------------|
E||--------------------||--------------------|---------------------|---------------------|


----------|-------------------|---------------------|-------------------|-------------------|
----------|-------------------|---------------------|-------------------|-------------------|
----------|-------------------|-----------0---------|-------------------|------------------*|
----------|--0----------------|------0---------4----|--0----2--2--------|---------0---2----*|
----------|-------------------|---------------------|-------------------|-------------------|
----------|-------------------|---------------------|-------------------|-------------------|

-------------------||
-------------------||
-------------------||
--0----------------||
-------------------||
-------------------||


Oceń to opracowanie
Ocena czytelników: Dobry 12 głosów
Kontrybucje:
Pająk
Pająk
gosjusz
gosjusz
anonim
  • jarik
    Czy ma ktoś z was nagrane to jak gra bardzo bym potrzebował jeżeli była by taka możliwość
    · Zgłoś · 2 lata temu
  • Kacper
    Syududyd
    Kocham to
    · Zgłoś · 4 lata temu
  • Kacper
    olkafisiolka
    BICIE: DÓŁ, DÓŁ, GÓRA, GÓRA, DÓŁ, GÓRA
    · Zgłoś · 5 lat temu
  • Kacper
    jacek ciepiela
    nie znam bicia .
    · Zgłoś · 5 lat temu
  • Sylwuśkaa;)
    Jakie bicie do tej piosenki? ;]
    · Zgłoś · 12 lat temu
  • Tymbark
    Jakie ma być bicie do akordów ; /?
    · Zgłoś · 13 lat temu
  • aniulkaaa96
    przeciez to caął piosenka jest!!!

    :/

    ty tomoromo wź sie ogarnij!!!

    Łukajsz ma racjee!:)
    · Zgłoś · 14 lat temu
  • Pinia
    Sorki ale dopiero się uczę... jaki ma być tu rytm??
    · Zgłoś · 15 lat temu
  • Kacper
    lukajsz
    sam jestes pomylka. nie rozumiesz chyba kanonu.
    · Zgłoś · 15 lat temu
  • Kacper
    tomoromo
    to ma byc tekst piosenki?? to chyba jakas pomyklka
    · Zgłoś · 15 lat temu
Wszystkie komentarze