Popraw Opracowanie
Transponuj
0

My Friends Red Hot Chili Peppers

Tekst piosenki

  • Tekst piosenki Michał Wągrodzki
    3 ulubione
The Red Hot Chili Peppers
My Friends

Tune the low E string to D (1 step down)

Intro:
E:----------0-------------0--------------------------|
B:----------3-------------3--------------------------|
G:------2-----------0-2-------------0-2--------020-0-|
D:--0-----------0-3---------3---0-2---------02----2--|
A:----------------------------2---------2-3----------|
D:---------------------------------------------------|
	My friends are so depressed...

Chorus:
E:-------------------------------|
B:--1---1-------1--------3---1---|
G:--0---2-------0--------0---2---|
D:--2---2-----2--------4-----2---|
A:--3---0---3------3--5------0---|
D:-------------------------------|
	I love all of you...

Middle Part:
E:----------------------------------------------------|
B:----------------------------------------------------|
G:--9-9-9-9-9-9-9-9--7-7-7-7-7-7-7-7--6-6-6-6-6-6-6-6-|
D:--9-9-9-9-9-9-9-9--7-7-7-7-7-7-7-7--6-6-6-6-6-6-6-6-|
A:--7-7-7-7-7-7-7-7--5-5-5-5-5-5-5-5--4-4-4-4-4-4-4-4-|
D:----------------------------------------------------|
	Imagine me taught by tragedy...
E:----------------------------------------------------|
B:----------------------------------------------------|
G:--5-5-5-5-5-5-5-5-----------------------------------|
D:--5-5-5-5-5-5-5-5--5-5-5-5-5-5-5-5--4-4-4-4-4-4-4-4-|
A:--3-3-3-3-3-3-3-3--5-5-5-5-5-5-5-5--4-4-4-4-4-4-4-4-|
D:-------------------5-5-5-5-5-5-5-5--4-4-4-4-4-4-4-4-|
		     Release in peace...
E:-----------------------------------|
B:-----------------------------------|
G:-----------------------------------|
D:--3-3-3-3-3-3-3-3--3-3-3-3-3-3-3-3-|
A:--3-3-3-3-3-3-3-3--3-3-3-3-3-3-3-3-|
D:--3-3-3-3-3-3-3-3--3-3-3-3-3-3-3-3-|

End Part:
E:------------------------------------0-----------------|
B:------3-------3---------------------3-----------------|
G:----2-------2---------0--------0----2-----------------|
D:--0-----0-3-----3---0--------0---0--0---0-------0-----|
A:------------------1-----1-12----------0---0---2-------|
D:--------------------------------------------3-----3-0-|

Lyrics:

My friends are so depressed
I feel the question of your loneliness
Confide 'cause I'll be on your side
You know I will you know I will

Ex-girlfriend called me up
Alone and desperate on the prison phone
They want to give her seven years
For being sad

Chorus:
I love all of you
Hurt by the cold
So hard and lonely too
When you don't know yourself

My friends are so distressed
And standing on the brink of emptiness
No words I know of to express
This emptiness

Chorus

Imagine me taught by tragedy
Release in peace

I heard a little girl
And what she said
Was something beautiful
To give your love
No matter what she said

---

Daniel Routman
dbr@ionet.net



Red Hot Chili Peppers
Solo from My Friends
Tabbed by Keith Barron

I noticed there were some pretty accurate tabs for "my friends"
but none of them contained the solo. I am tabbing it from memory
but I guarantee its right. If you dont agree then e-mail me


SOLO
e------------------------------------------------I
b------------------------------------------------I
g--9/11-11-11-11\-9\-7----7/9\---7\---5----5/-7\-I
d------------------------------------------------I
a--7/-9--9--9--9\-7\-5----5/7\---5\---3----3/-5\-I
e------------------------------------------------I
   s  s  s  s  s  s  e    * e    e    e    s  s

(*)These are grace notes. Don't hit notes after slide
                          let them flow :)

e---------------------------------------------I
b---------------------------------------------I
g-\4------------4--4--4/-5--5--5--5/-7--7--7--I
d---------------------------------------------I
a-\2------------2--2--2/-3--3--3--3/-5--5--5--I
e---------------------------------------------I
   q+e          s  s  s  s  s  s  s  s  s  s


e---------------------------------------------
b---------------------------------------------
g--7-11-11-11-11-11-11-11-11--14--14--14--14--
d---------------------------------------------
a--5--9--9--9--9--9--9--9--9--12--12--12--12--
e---------------------------------------------
   s  s  s  s  s  s  s  s  s  s   s   s   s

e--------------I-----------------------------------------I
b--------------I--------------------13b(15)--13b(15)-----I
g--14--14/-16\-I-\12------------0---------------------0--I
d--------------I----------------0---------------------0--I
a--12--12/-14\-I-\10------10-----------------------------I
e--------------I-----------------------------------------I
   s   s   s      q       e     e   q        e+s      s


e-------------------------------------------------I
b-------------------------------------------------I
g--9/11-11-11-11\-9\-7----7/-9\---7\---5----5/-7\-I
d-------------------------------------------------I
a--7/-9--9--9--9\-7\-5----5/-7\---5\---3----3/-5\-I
e-------------------------------------------------I
   s  s  s  s  s  s  e    *  e    e    e    s  s


e--------------------------------------------I
b--------------------------------------------I
g-\4------------4----4/-5--5--5--5/-7--7--7--I
d--------------------------------------------I
a-\2------------2----2/-3--3--3--3/-5--5--5--I
e--------------------------------------------I
   q+e          e    s  s  s  s  s  s  s  s


e---------------------------------------------
b---------------------------------------------
g--7/11-11-11-11-11-11-11-11/-14--14--14--14--
d---------------------------------------------
a--5/-9--9--9--9--9--9--9--9/-12--12--12--12--
e---------------------------------------------
   s  s  s  s  s  s  s  s  s  s   s   s   s


e----------I------------------------------------I
b----------I------------------------------------I
g--14/-16\-I-\12------------12\---5-------------I
d----------I------------------------------------I
a--12/-14\-I-\10------------10\---3-------------I
e----------I------------------------------------I
   s   s      q+e           e     h

...Then to Bridge...

E, G6, F#7sus4, Fmaj7#11, C, Bsus4, F5............

The end of the song is cool also.
That great distorted guitar comes back into this acoustic
song and probably plays this:

b--10--10--10--10--10--10--10--10--I
g--11--11--11--11--11--11--11--11--I

b--10--10--10--10--10--10--10--10--I
g--12--12--12--12--12--12--12--12--I

b--10--10--10--10--10--10--10--10--I
g--10--10--10--10--10--10--10--10--I

b--10--10--10--10--10--10--10--10--I
g---9---9---9---9---9---9---9---9--I

b--10--10--10--10--10--10--10--10--I
g--11--11--11--11--11--11--11--11--I

b--10--10--10--10--10--10--10--10--I
g--12--12--12--12--12--12--12--12--I


b--10--10--10--10--10--10--10--10--I
g--10--10--10--10--10--10--10--10--I

b--5---5---5---5---5---5---5---5---I
g--5---5---5---5---5---5---5---5---I

These are all sixteenth notes....
....This about all you need but if you
have trouble with the tab you know where
to reach me.

On the solo you bend 13th fret a full step--
--which sounds like 15th fret of course.
And it sounds better if you slide directly to
the next note without hitting it.

Oceń to opracowanie

Kontrybucje
Michał Wągrodzki

Wakacyjny Konkurs Śpiewnikowy

Pula nagród w konkursie ponad 10.000 zł!
Przysyłaj opracowania piosenek i zdobądź bony na zakupy w sklepie muzycznym.
Zapoznaj się z regulaminem konkursu.
anonim