0
0

DRIVE R.E.M

Tekst piosenki i chwyty na gitarę

  • Chwyty na gitarę Średni
    10 ulubionych
Intro:

||-d--------1-----------1----------1-----1--------
||-------------3-----------3-------------------3-
||-----2-----------------------------0----------- x 3
||-0---------------0----------0-------------3----
||-----------------------------------------------
||-----------------------------------------------


||---------1-----------1-------------------------
||-------------3-----------3-------3----3------3-
||-----2---------------------------0h2--0------0-
||-0---------------0----------0-------------3----
||-----------------------------------------------
||-----------------------------------------------

dSmack, crack, bushwhacked
G with Intro riff
Tie another one to the racks, dbaby

dHey kids, Rock and Roll
G with intro riff
Nobody tells you where to go, dbaby

FWhat if I ride, what if you walk
aWhat if you rock around the clock
GTick, tock, Gtick, tock
eWhat if you did, what if you walk
e with intro riff
What if you tried to get Goff, dbaby

dHey kids, where are you
GNobody tells you what to do, dbaby

dHey kids, shake a leg
G with intro riff
maybe you're crazy in the head, dbaby

FMaybe you did, maybe you walked
aBaby you rocked around the clock
GTick, tock, Gtick, tock
eMaybe I ride, maybe you walk
e with intro riff
Maybe I drive to get Goff, dbaby

CHey kids, shake a leg
with intro riff
maybe you're crazy in the head, bdaby

COllie Ollie Ollie Ollie Ollie
C (with intro riff)
Ollie Ollie in come free, dbaby

CHey kids, where are you
with intro riff
Nobody tells you what to do, dbaby

dSmack, crack, shackalack
G with intro riff
Tie another one to your back, dbaby

dHey kids, Rock and Roll
G with intro riff
Nobody tells you where to go, dbaby

FMaybe you did, maybe you walked
aMaybe you rock around the clock
GTick, tock, Gtick, tock
eMaybe I ride, maybe you walk
e with intro riff
Maybe I drive to get Goff, dbaby

eHey kids, where are you
e with intro riff
Nobody tells you what to dGo, dbaby

eHey kids, Rock and Roll
E with intro riff
Nobody tells you where to Ggo, dbaby, baby, baby

Ending: d Strum


Electric guitar solo tabbed by Sam Giffney (giffjone@iconz.co.nz)

E-5-3-------------------5-3------------------
B-----6-5-3---5/6---3-------6--3---5/6---3---
G--------------------------------------------

D--------------------------------------------
A--------------------------------------------
E--------------------------------------------


E-5-3-------------------5-3------------------
B-----6-3-------------------6--3---5/6---3---
G---------5---5/7---5------------------------
D--------------------------------------------
A--------------------------------------------
E--------------------------------------------


E-5-3----------------------------------------
B-----6-3------------------------------------
G---------5


Oceń to opracowanie
Ocena czytelników: Słaby 2 głosy
anonim