0
0

Losing My Religion R.E.M

Tekst piosenki i chwyty na gitarę

  • Chwyty na gitarę Magda Wojtan
    54 ulubione
Intro
e|--10--12--10------F8--|--G10--12--10------a 8--|
b|--------------10-----|--------------10-----|
g|---------------------|---------------------|
D|---------------------|---------------------|
A|---------------------|---------------------|
E|---------------------|---------------------|

F G a G(II)
e|--10--12--10------8--|--10--12--10------8--|
b|--------------10-----|--------------10-----|
g|---------------------|---------------------|
D|---------------------|---------------------|
A|---------------------|---------------------|
E|---------------------|---------------------|

Guitar pass

e|-----------5--3-----|
b|--------5--------3--|
g|--5--7--------------|
D|--------------------|
A|--------------------|
E|--------------------|


Oh life a  is bigger, e it's bigger than you.
And you are a not me, the lengths that I will e go to.
The distance in your eyes. a   
e  Oh no, I've said     too    d much, I've said enough.  G 


#Guitar pass#

That's me in the corner, a  That's me in the e spot light,
Losing my religion. a  Trying to e keep up with you.
And I a don't know if I can do it.
e  Oh no, I've said     too    md uch, I haven't said enough.  G 


#You do the intro note here#

I thought that I heard you laughing. F 
FI thought that I Gheard you a sing.
F d G a G(II)
I think I thought I saw you try.


#Guitar pass#

  Every whisper, a   
Every waking e hour, I'm choosing my confessions. a   
Trying to e keep eye on you.
Like a a hurt lost and blinded fool, fool.
e  Oh no, I've said too much. d  I said enough. G 


#Guitar pass#

Consider this, a  consider this e hint of the century.
Consider this, a  the slip, that e brought me to my knees pale.
a What if all these fantasies come e flaming aground.
Now I've d said too Gmuch.


#You do the intro note here#

I thought that I heard you laughing. F 
FI thought that I Gheard you a sing.
F d G a G(II)
I think I thought I saw you try.

Interlude
e|--C12--12--12--10--10--10--10--10--a 8--8--8--5--5--5--5--5--|
b|----------------------------------------------------------|
g|----------------------------------------------------------|
D|----------------------------------------------------------|
A|----------------------------------------------------------|
E|----------------------------------------------------------|
[ Tab from: http://www.guitaretab.com/r/rem/15914.html ]
e|--C12--12--12--10--10--10--10--10--a 8--8--8--5--5--5--5--5--|
b|----------------------------------------------------------|
g|----------------------------------------------------------|
D|----------------------------------------------------------|
A|----------------------------------------------------------|
E|----------------------------------------------------------|

    CThat's was just dream           a   
e|--12--12--12--10--10--10--10--10--8--8--8--5--5--5--5--5--|
b|----------------------------------------------------------|
g|----------------------------------------------------------|
D|----------------------------------------------------------|
A|----------------------------------------------------------|
E|----------------------------------------------------------|

    CThat's was just a dream         a That's me in the corner
e|--12--12--12--10--10--10--10--10-----------5--3--------------|
b|----------------------------------------5--------3-----------|
g|----------------------------------5--7-----------------------|
D|-------------------------------------------------------------|
A|-------------------------------------------------------------|
E|-------------------------------------------------------------|

That's me in the e spot light, losing my religion. a   
Trying to e keep up with you.  And I a don't know if I can do it.
e  Oh no, I've said     d too much.
I haven't said enough. G 


#You do the intro note until the outro#

I thought that I heard you laughing.F 
FI thought that I Gheard you a sing.
F d G a G(II)
I think I thought I saw you try.
But Fthat was just a dream,G      try, a cry, why try.
F G a G(II) G(II)
That was just a dream, just a dream, just a dream, dream.

Outro
e|--12--12--12--12--12--12--12--12--|
b|----------------------------------|
g|----------------------------------|
D|----------------------------------|
A|----------------------------------|
E|----------------------------------|

e|--12--12--12--12--12--12--12--12--|
b|----------------------------------|
g|----------------------------------|
D|----------------------------------|
A|----------------------------------|
E|----------------------------------|

e|--12--12--12--12--12--12--12--12--|
b|----------------------------------|
g|----------------------------------|
D|----------------------------------|
A|----------------------------------|
E|----------------------------------|

e|--12--12--12--12--12--12--12--12--|
b|----------------------------------|
g|----------------------------------|
D|----------------------------------|
A|----------------------------------|
E|----------------------------------|

e|--12--12--12--12--12--12--12--12--|
b|----------------------------------|
g|----------------------------------|
D|----------------------------------|
A|----------------------------------|
E|----------------------------------|

e|--12--12--12--12--12--12--12--12--|
b|----------------------------------|
g|----------------------------------|
D|----------------------------------|
A|----------------------------------|
E|----------------------------------|

e|--12--12--12--12--12--12--12--12--|
b|----------------------------------|
g|----------------------------------|
D|----------------------------------|
A|----------------------------------|
E|----------------------------------|

e|--12--10----------10-------------------|
b|----------13--10------13--10--13--10v--|
g|---------------------------------------|
D|---------------------------------------|
A|---------------------------------------|
E|---------------------------------------|


Oceń to opracowanie
Ocena czytelników: Niczego sobie+ 6 głosów
anonim