0
0

Broken Seether

Tekst piosenki i chwyty na gitarę

  • Chwyty na gitarę Średni
    9 ulubionych
I wanted you to know I love the way you laugh / e C e C
I wanna hold you high and steal your pain away / e C D C
I keep your photograph; I know it serves me well / e C e C
I wanna hold you high and steal your pain / e C D C

'cause I'm broken when I'm open / C e C e
And I don't feel like I am strong enough / C e C D C
'cause I'm broken when I'm lonesome / C e C e
And I don't feel light when you're gone away / C e D C

The worst is over now and we can breathe again
I wanna hold you high, you steal my pain away
There's so much left to learn, and no one left to fight
I wanna hold you high and steal your pain

'cause I'm broken when I'm open
And I don't feel like I am strong enough
'cause I'm broken when I'm lonesome
And I don't feel right when you're gone away

'cause I'm broken when I'm open
And I don't feel like I am strong enough
'cause I'm broken when I'm lonesome
And I don't feel light when you're gone away


  e7         C9
|-2h3-----3--3------3----------|
|-----3------3----3---3---3-3--|
|-------0-------0-------0------|
|-2----------------------------|
|------------3-----------------|
|------------------------------|

  D
|-0h2-----3p2---0h2-------3p2-----|
|-----3-------3-----3---3-----3---|
|-------2-------------2---------0-|
|-0-------------------------------|
|---------------------------------|
|---------------------------------|

____________________________________________________________
Solo
|--------------------------------------------|
|--------------------------------------------|
|----------------------------------9---9-----|
|--------------------------------9---9---9---|
|-------5-7-5-7/10-9-9h10-9h10-7-----------7-|
|-0-5-7--------------------------------------|

|---------------------------------------------|
|---------------------------------------------|
|--------------------------------7-9-7--------|
|------------------------------7-------7-7h9-9|
|-------5-7-5-7/10-9-9h10-9h10----------------|
|-0-5-7---------------------------------------|

____________________________________________________________
Solo 2
|-15-14----15-14----------|
|-------15-------17-15-17-|
|-------------------------|
|-------------------------|
|-------------------------|
|-------------------------|

|-15-14----14-12----15-14-15-14----17-15-14----14-| x3
|-------15-------15-------------15----------17----|
|-------------------------------------------------|
|-------------------------------------------------|
|-------------------------------------------------|
|-------------------------------------------------|

|-15-14----15-14-------|
|-------15-------15-17-|
|----------------------|
|----------------------|
|----------------------|
|----------------------|


Oceń to opracowanie
Ocena czytelników: Dobry 6 głosów
Kontrybucje:
Broke2
Broke2
artuditu
artuditu
anonim
  • Broke2
    Broke2 12 lat temu

    Ja biję na wyczucie. A jeśli ci zależy na idealnym to musisz dobrze wsłuchać się w piosenkę :)

  • Szczecin
    Szczecin 12 lat temu

    a jakie jest bicie?