0
0

Przepraszam Sobota

Tekst piosenki i chwyty na gitarę

  • Chwyty na gitarę SzumWuchu
    1 ulubiony
Wszystkie chwyty gramy jako akordy barowe (d-moll w pozycji 10, f-moll w pozycji 13, a-moll w pozycji 5, c-moll w pozycji 8, G-dur w pozycji 3)

Intro:
d, f, a, c
d, f, a, G

Zwrotka:
d, a

Refren:
d, f, a, c
d, f, a, G


Oceń to opracowanie
Ocena czytelników: Dobry 7 głosów
Kontrybucje:
SzumWuchu
SzumWuchu
anonim
  • Kacper
    Dominn
    Przejścia między akordami
    1.


    e1|-----------------------
    B2|----13p11-----------
    G3|------------12p10--
    D4|----------------------
    A5|----------------------
    E6|----------------------

    2.

    e1|-----------------------------
    B2|----11h13p11------------
    G3|-----------------12p10---
    D4|----------------------------
    A5|----------------------------
    E6|----------------------------
    · Zgłoś · 6 lat temu