0
0

Fields of Gold Sting

Tekst piosenki i chwyty na gitarę

  • Chwyty na gitarę nianka
    86 ulubionych
h1.Youll remember me when thGe west wind moves
Upon the fields of baDrley
Youll forhget the sun in his jealGous sDky
As we wGalk in the fiAelds of gold    h 

So she tohok her love
For to gazeG awhile
Upon the fields of baDrley
In his arhms she fell as her haGir came dDown
AmGong the fAields of golDd



gramy podczas drugiej zwrotki:
e-------------|---------------|---------------|--
B-------------|---------------|---------------|--
G--7-6-4-2--2-|--7-6-4-2--2/4-|--4--2-2-------|--
D-------------|---------------|----------0-/4-|--
A-------------|---------------|---------------|--
E-------------|---------------|---------------|--

e-------------|-------------|------------------|--
B-------------|-------------|------------------|--
G--7-6-4-2--2-|--7-6-4-2--2-|------------------|--
D-------------|-------------|--2-4-5--4-4--2-0-|--
A-------------|-------------|------------------|--
E-------------|-------------|------------------|--

2.Will you sthay with me, will you bGe my love
Among the fields of baDrley
Well fohrget the sun in his jeGalous skDy
As we liGe in the fAields of ghold

See the whest wind move like a lGover so
Upon the fields of baDrley
Feel her bohdy rise when you kGiss her mDouth
AmGong the fAields of gold D 

IG never made promises lDightly
AnGd there have been sDome that Ive broken
BGut I swear in the dDays still left
Well waGlk in the fiAelds of goDld
Well waGlk in the fiAelds of goDld


solo

e--10-9-7--------|--10-9-7-----------|-------------------|--
B----------10-10-|----------10-10/12-|--12--10-10----5/7-|--
G----------------|-------------------|-------------7-----|--
D----------------|-------------------|-------------------|--
A----------------|-------------------|-------------------|--
E----------------|-------------------|-------------------|--


e--10-9-7--------|--10-9-7---------|------------------|--
B----------10-10-|----------10--10-|--5-7-8--7-7--5---|--
G----------------|-----------------|----------------7-|--
D----------------|-----------------|------------------|--
A----------------|-----------------|------------------|--
E----------------|-----------------|------------------|--
3.Many yehars have passed since those sGummer days
Among the fields of baDrley
See the chihldren run as the sGun goes doDwn
AmGong the fiAelds of gDold
You'll rehmember me when the Gwest wind moves
Upon the fields of barlDey
You can htell the sun in his jeGalous skDy
When we walGked in the fieAlds of goDld
When we walGked in the fieAlds of goDld
When we walGked in the fieAlds of goDld

na koniec: D


Oceń to opracowanie
Ocena czytelników: Niczego sobie+ 12 głosów
Historia
Kontrybucje:
nianka
nianka
anonim