0
0

Twoje motylki Strachy na Lachy

Tekst piosenki i chwyty na gitarę

  • Chwyty na gitarę asdasd
    6 ulubionych
Kapodaster 1 próg


Twoje motylki są lżejsze niż puch D A E fis
Muskają się po nieba okruchach D A E fis
Kiedy dotkną mnie trochę niżej niż brzuch D A E fis
Dobry Bóg nas dzisiaj posłucha D A E fis

fis

Jestem tu, bo ty tego chcesz D A5 E fis A
Jesteś tu bo ja, tego chcę D A5 E fis
Jestem tu, bo ty tego chcesz D A5 E fis A
Jesteś tu bo ja, tego chcę D A5 E fis

Bez odpowiedzi i zbędnych pytań
Czy to jest miłość czy przyjaźń
Dzisiaj należymy tylko do siebie
Dobry los będzie nam sprzyjał

Jestem tu, bo ty tego chcesz
Jesteś tu bo ja, tego chcę
Jestem tu, bo ty tego chcesz
Jesteś tu bo ja, tego chcę

D fis x3
D A E
D A E fis x2

Nie wiem sam co by się ze mną stało
Gdybym ciebie nie poznał
Na nikogo już czekać nie miałem
Dobry czas dał nam się spotkać

Jestem tu, bo ty tego chcesz
Jesteś tu bo ja, tego chcę
Jestem tu, bo ty tego chcesz
Jesteś tu bo ja, tego chcę

Mimo północy zawyją wilki
I księżyc stanie się błogi
Po plecach przejdą nam już inne motylki
Dobry sen, dobrze nam zrobi

Jestem tu, bo ty tego chcesz
Jesteś tu bo ja, tego chcę
Jestem tu, bo ty tego chcesz
Jesteś tu bo ja, tego chce
/2x

ja Jestem tu, bo ty tego chcesz
ty Jesteś tu bo ja, tego chcę
ja Jestem tu, bo ty tego chcesz
Jesteś tu bo ja, tego chce

####################################
Intro
E ||-----------------------------------||----5-6-5---------------------------||
B ||----------------6-----6---8------||-----------------6-------------------||
G ||------5---7-------7------------- ||-------------------------7-----------||
D ||-----------------------------------||--------------------------------------||
A ||-----------------------------------||--------------------------------------||
E ||-----------------------------------||--------------------------------------||

E ||--------------------------------6--||----5-6-5---------------------------||
B ||----------------6-----6---8------||-----------------6--------8----------||
G ||------5---7-------7------------- ||--------------------------------------||
D ||-----------------------------------||--------------------------------------||
A ||-----------------------------------||--------------------------------------||
E ||-----------------------------------||--------------------------------------||

E ||-----------------------------------||-----------10--------10-----------------||
B ||----------------6-----6---8------||---8--8---------8-----------8-----------||
G ||------5---7-------7------------- ||------------------------------------------||
D ||-----------------------------------||------------------------------------------||
A ||-----------------------------------||------------------------------------------||
E ||-----------------------------------||------------------------------------------||

E ||----5-6-5---------------------------||------6-----------------------------||
B ||-----------------6-------------------||-------------6---6~~~8-----------||
G ||-------------------------7-----------||--------------------------------------||
D ||--------------------------------------||--------------------------------------||
A ||--------------------------------------||--------------------------------------||
E ||--------------------------------------||--------------------------------------||

E ||-----------------------------------||-----------10--------10-----------------||
B ||----------------6-----6---8------||---8--8---------8-----------8-----------||
G ||------5---7-------7------------- ||------------------------------------------||
D ||-----------------------------------||------------------------------------------||
A ||-----------------------------------||------------------------------------------||
E ||-----------------------------------||------------------------------------------||

E ||----5-6-5---------------------------||--------------5----5~6--------------||
B ||-----------------6--------8----------||------8------------------------------||
G ||--------------------------------------||--------------------------------------||
D ||--------------------------------------||--------------------------------------||
A ||--------------------------------------||--------------------------------------||
E ||--------------------------------------||--------------------------------------||
####################################################

2 gitara w czasie refrenu (całość X2)


E ||-------------------------------------||---13------------13-----15-13-----||
B ||--------------------------13-15---||---------15----15-------15-------------||
G ||------------12-14-15------------||------------------------------------------||
D ||---13-15-------------------------||------------------------------------------||
A ||------------------------------------||------------------------------------------||
E ||------------------------------------||------------------------------------------||

---------13--------------15-13----||
---15----------15------------------||
--------------------------------------||
--------------------------------------||
--------------------------------------||
--------------------------------------||

E ||-------------------------------------||--13-----------13----------------------||
B ||--------------------------13-15---||-------15--15-------15---13----15----||
G ||------------12-14-15------------||------------------------------------------||
D ||---13-15-------------------------||------------------------------------------||
A ||------------------------------------||------------------------------------------||
E ||------------------------------------||------------------------------------------||

---------13-------------------------||
---15----------15------------------||
------------------------15----------||
--------------------------------------||
--------------------------------------||
--------------------------------------||
#####################################################



Oceń to opracowanie
Ocena czytelników: Doskonały 2 głosy
Kontrybucje:
asdasd
asdasd
anonim