Atwa System Of A Down

B5    8 8 8 x x x   F5/Bb  8 8 10 x x x    D5     0 0 0 x x x   Csus2 10 x 12 x x x

     8 xBsus2 10 x x x          7 xAsus2 9 x x x          5 xGsus2 7 x x x          7 7 A57 x x x

      3 3 F53 x x x          2 2 E52 x x x          5 5 G55 x x x

Intro

Gtr III
|-----------|-------------|-----------|
|-----------|-------------|-----------|
|-----------|-------------|-----------|
|-5--1------|-(1)--3------|-(3)--0----|


N.C.
Gtr I
|----------------------|-------------------------|
|----------------------|-------------------------|
|----------------------|-------------------------|
|----0---0---0---0---0-|-(0)---0---0---0---0---0-|
|--0---0---0---0---0---|-----0---0---0---0---0---|
|----------------------|-------------------------|


|--------------------------|-------------------------|
|--------------------------|-------------------------|
|--------------------------|-------------------------|
|-(0)---0---0---0---0-0----|-------0---0---0---0---0-|
|-----0---0---0---0------0-|-(0)-0---0---0---0---0---|
|--------------------------|-------------------------|
|
| Gtr III
| <
|--------------------------|-------------------------|
|--------------------------|-------------------------|
|--------------------------|--5----------------------|
|--------------------------|-------------------------|


|------------------------|-------------------------|
|------------------------|-------------------------|
|------------------------|-------------------------|
|------0---0---0---0---0-|-(0)---0---0---0---0---0-|
|----0---0---0---0---0---|-----0---0---0---0---0---|
|------------------------|-------------------------|
|
|------------------------|-------------------------|
|------------------------|-------------------------|
|-10---------------------|--8----------------------|
|------------------------|-------------------------|


|--------------------------|-------------------------||
|--------------------------|-------------------------||
|--------------------------|-------------------------||
|-(0)---0---0---0---0-0----|-------0---0---0---0---0-||
|-----0---0---0---0------0-|-(0)-0---0---0---0---0---||
|--------------------------|-------------------------||
|
|--------------------------|-------------------------||
|--------------------------|-------------------------||
|--1-----------------------|--3----------------------||
|--------------------------|-------------------------||


Verse 1 and 2
$
    B5 Gtr IIF5/Bb      B5                     F5/Bb      B5    
||--------------------------|-------------------------|
||o-------------------------|-------------------------|
||--------------------------|-------------------------|
||--8-8-8-10-10-8-8-8-8-8-8-|-8-8-8-10-10-8-8-8-8-8-8-|
||o-8-8-8--8--8-8-8-8-8-8-8-|-8-8-8--8--8-8-8-8-8-8-8-|
||--8-8-8--8--8-8-8-8-8-8-8-|-8-8-8--8--8-8-8-8-8-8-8-|


1.,2.,3.
  D5PM----| Csus2    D5PM----| Bsus2     D5PM----| Asus2  D5PM----| Gsus2     
4x

|---------------------------------|------------------------------||
|---------------------------------|-----------------------------o||
|---------12-(12)---------10-(10)-|---------9-(9)---------7-(7)--||
|----------x---x-----------x---x--|---------x--x----------x--x---||
|-0-0-0-0-10-(10)-0-0-0-0--8--(8)-|-0-0-0-0-7-(7)-0-0-0-0-5-(5)-o||
|-0-0-0-0---------0-0-0-0---------|-0-0-0-0-------0-0-0-0--------||


Chorus 1 and 2
4.
N.C.
Gtr I
|----------------------|-------------------------|
|----------------------|-------------------------|
|----------------------|-------------------------|
|----0---0---0---0---0-|-(0)---0---0---0---0---0-|
|--0---0---0---0---0---|-----0---0---0---0---0---|
|----------------------|-------------------------|


D.S.
|--------------------------|-------------------------|
|--------------------------|-------------------------|
|--------------------------|-------------------------|
|-(0)---0---0---0---0-0----|-------0---0---0---0---0-|
|-----0---0---0---0------0-|-(0)-0---0---0---0---0---|
|--------------------------|-------------------------|


|-------------------------|-------------------------|
|-------------------------|-------------------------|
|-------------------------|-------------------------|
|-(0)---0---0---0---0---0-|-(0)---0---0---0---0---0-|
|-----0---0---0---0---0---|-----0---0---0---0---0---|
|-------------------------|-------------------------|


|--------------------------|-------------------------||
|--------------------------|-------------------------||
|--------------------------|-------------------------||
|-(0)---0---0---0---0-0----|-------0---0---0---0---0-||
|-----0---0---0---0------0-|-(0)-0---0---0---0---0---||
|--------------------------|-------------------------||


Verse 3
Gtr II
||--------------------------|-------------------------|
||o-------------------------|-------------------------|
||--------------------------|-------------------------|
||--8-8-8-10-10-8-8-8-8-8-8-|-8-8-8-10-10-8-8-8-8-8-8-|
||o-8-8-8--8--8-8-8-8-8-8-8-|-8-8-8--8--8-8-8-8-8-8-8-|
||--8-8-8--8--8-8-8-8-8-8-8-|-8-8-8--8--8-8-8-8-8-8-8-|


1.,2.,3.
PM----| PM----| PM----| PM----|
4x

|---------------------------------|------------------------------||
|---------------------------------|-----------------------------o||
|---------12-(12)---------10-(10)-|---------9-(9)---------7-(7)--||
|----------x---x-----------x---x--|---------x--x----------x--x---||
|-0-0-0-0-10-(10)-0-0-0-0--8--(8)-|-0-0-0-0-7-(7)-0-0-0-0-5-(5)-o||
|-0-0-0-0---------0-0-0-0---------|-0-0-0-0-------0-0-0-0--------||


Outro Pre-Chorus
4.
  A5Gtr II
|-----------------|-----------------||
|-----------------|-----------------||
|-----------------|-----------------||
|-7-7-7-7-7-7-7-7-|-7-7-7-7-7-7-7-7-||
|-7-7-7-7-7-7-7-7-|-7-7-7-7-7-7-7-7-||
|-7-7-7-7-7-7-7-7-|-7-7-7-7-7-7-7-7-||


Outro Chorus
F5E5D5 G5F5E5 F5G5A5BbA5G5 F5E5D5
||---------------|--------------|-------------|---------------||
||o--------------|--------------|-------------|--------------o||
||---------------|--------------|-------------|---------------||
||--3-2-0-(0)----|-5-3-2-(2)----|-3-5-7-8-7-5-|-3-2-0-(0)-----||
||o-3-2-0-(0)----|-5-3-2-(2)----|-3-5-7-8-7-5-|-3-2-0-(0)----o||
||--3-2-0-(0)----|-5-3-2-(2)----|-3-5-7-8-7-5-|-3-2-0-(0)-----||


N.C.
Gtr I
||-----------------------|-------------------------|
||o----------------------|-------------------------|
||-----------------------|-------------------------|
||-----0---0---0---0---0-|-(0)---0---0---0---0---0-|
||o--0---0---0---0---0---|-----0---0---0---0---0---|
||-----------------------|-------------------------|


1.,2.,3.
4x

|--------------------------|--------------------------||
|--------------------------|-------------------------o||
|--------------------------|--------------------------||
|-(0)---0---0---0---0-0----|-------0---0---0---0---0--||
|-----0---0---0---0------0-|-(0)-0---0---0---0---0---o||
|--------------------------|--------------------------||


4.
|-----------------------------*|
|-----------------------------*|
|-----------------------------*|
|-(0)---0---0---0-(0)--(0)----*|
|-----0---0---0---------------*|
|-----------------------------*|


Oceń to opracowanie
Ocena czytelników: Fatalny 1 głos
Kontrybucje:
Kubus
Kubus
anonim
  • Solarzinho
    początek to z aerials a dalej to dont KPW
    · Zgłoś · 14 lat temu
  • Tyśka
    ee... jakieś dziwne ;|
    · Zgłoś · 15 lat temu
  • Kacper
    :P
    lol? to ma byc tabulatuta ATWA ? heh raczej nie xD
    · Zgłoś · 15 lat temu
  • Kacper
    NIKA
    JA TEŻ :-0
    · Zgłoś · 15 lat temu
  • Kacper
    Kika
    Nie kapuje tego...
    · Zgłoś · 16 lat temu