Spiders (KK) System Of A Down

Tekst piosenki

  • Tekst piosenki KamilKoRn
    1 ulubiony

Strój:
(C,G,C,F,A,D)


INTRO:

D|------------------------------|
A|------------------------------|
F|------------------------------|
C|------------------------------|
G|-----7----7----5----5----5----|
C|--0-----0----0----0----0---0--|

D|------------------------------|
A|------------------------------|
F|------------------------------|
C|------------------------------|
G|-----7----7----5----5----5----|
C|--0-----0----0----0----0---0--|

D|-------------------------------|
A|-------------------------------|
F|-------------------------------|
C|-------------------------------|
G|-----8----7----10----8----7-8--|
C|--0-----0----0-----0----0------|

D|------------------------------|
A|------------------------------|
F|------------------------------|
C|------------------------------|
G|-----7----7----5----5----5----|
C|--0-----0----0----0----0---0--|

1:

D|-----------------------------------------|
A|-----------------------------------------|
F|-----------------------------------------|
C|-----------------------------------------|
G|--10--10--10--10-10-10-10-10--10--10-10--|
C|--10--10--10--10-10-10-10-10--10--10-10--|

D|-----------------------------------------------|
A|-----------------------------------------------|
F|-----------------------------------------------|
C|-----------------------------------------------|
G|--10-10-10-10-10--10-10--10-10-10-10-10-10-10--|
C|--10-10-10-10-10--10-10--10-10-10-10-10-10-10--|

D|----------------------------------|
A|----------------------------------|
F|-----14---12---15----14----12/14--|
C|------x----x----x-----x-----x-----|
G|-----12---10---13----12----10/12--|
C|--0----------------0-----0--------|

D|------------------------------------------|
A|------------------------------------------|
F|-----12---12/14--10-10-10-10-10-10-10-10--|
C|------x----x------x--x--x--x--x--x--x--x--|
G|-----10---10/12---8--8--8--8--8--8--8--8--|
C|--0---------------------------------------|

D|-----------------------------------------|
A|-----------------------------------------|
F|-----------------------------------------|
C|-----------------------------------------|
G|--10--10--10--10-10-10-10--10-10--10-10--|
C|--10--10--10--10-10-10-10--10-10--10-10--|

D|----------------------------------|
A|----------------------------------|
F|----------------------------------|
C|----------------------------------|
G|--8-8-8-8-8--8-8-7-7-7-7-7-7-7-7--|
C|--8-8-8-8-8--8-8-7-7-7-7-7-7-7-7--|

SOLO:


D|----------------------------------------------|
A|----------------------------------------------|
F|--14------15------18------14------15------18--|
C|---x-------x-------x-------x-------x-------x--|
G|--12------13------16------12------13------16--|
C|----------------------------------------------|



D|----------------------------------------------| |---------------|
A|----------------------------------------------| |---------------|
F|--19------20------18------19------20------18--| |-----19----19--|
C|---x-------x-------x-------x-------x-------x--| |---------------|
G|--17------18------16------17------18------16--| |--17----17-----|
C|----------------------------------------------| |---------------|

OUTRO:

D|--------------------------------|
A|--------------------------------|
F|----10----9----12---10----9/10--|
C|-----x----x-----x----x----x-----|
G|-----8----7----10----8----7/-8--|
C|--0-----0----0-----0----0-------|

D|--------------------------------|
A|--------------------------------|
F|-----9----9/10---7----7----7-7--|
C|-----x----x------x----x----x-x--|
G|-----7----7/-8---5----5----5-5--|
C|--0-----0-----------0---0-------|

D|----------------------------------|
A|----------------------------------|
F|-----14---12---15----14----12/14--|
C|------x----x----x-----x-----x-----|
G|-----12---10---13----12----10/12--|
C|--0----------------0-----0--------|

D|---------------------|
A|---------------------|
F|-----12---12/14--10--|
C|------x----x------x--|
G|-----10---10/12---8--|
C|--0------------------|







Oceń to opracowanie
Kontrybucje:
KamilKoRn
KamilKoRn
anonim