0
0

Back In The U.S.S.R. The Beatles

Tekst piosenki i chwyty na gitarę

  • Chwyty na gitarę Redakcja
    3 ulubione

riff:
|--------------------------------------------
|--------------------------------------------
|---------------------------7--5-------------
|--------------7--5---------------8--5-------
|-7--5---------------8--5--------------------
|-------8--5---------------------------------

AFlew in from Miami Beach B.DO.A.C., didCn't get to bed last nigDht
On Athe way a paper bag was Don my knee, man CI had a dreadful fliDght

CHORUS
D A (or play riff starting here, going over next line)
I'm back in the USSR
C You don't know how lucky you areD, boy
D Back in the USSR A           D    Dis     E 
-------------------------------------------------
2
-----
D/EBack in the US, G/Eback in the US, back in the USSR
-------------------------------------------------

BRIDGE
A                Well the DUkraine girls really knock me out
They Aleave the west behind
And DMoscow fis/C#girls make me a/C sing and shout B7  
That E7Georgia's always on my-mi-mi-D7mi-mi-mi-mi-mi-mi-mind A 


Been away so long I hardly knew the place,
Gee it's good to be back home
Leave it till tomorrow to unpack my case,
Honey disconnect the phone


Show me round your snow peaked mountains way down south,
take me to your daddy's farm
Let me hear you balalaikas ringing out,
come and keep your comrade warm


Eb xx5343
fis/C# x44111
B7 x21202
D/E 000232
G/E 020003


Peace, love, and soul,
Paul Zimmerman


Oceń to opracowanie
Kontrybucje:
Redakcja
Redakcja
anonim
  • Kacper
    john
    im love Beatles
    · Zgłoś · 15 lat temu