0
0

Simply The Best Tina Turner

Tekst piosenki i chwyty na gitarę

  • Chwyty na gitarę 3EYE
    7 ulubionych
e|---------------------------------------------------------------------------|
B|----3-2--------------------------------------------------------------------|
G|--0------------------------------------------------------------------------|
D|3--------------------------------------------------------------------------|
A|---------------------------------------------------------------------------|
E|---------------------------------------------------------------------------|
This the the G key version
e|---------------------------------------------------------------------------|
B|----1-0--------------------------------------------------------------------|
G|0-2------------------------------------------------------------------------|
D|---------------------------------------------------------------------------|
A|---------------------------------------------------------------------------|
E|---------------------------------------------------------------------------|
Intro: F
IF call you when I need you, my heart's on fire
YFou come to me, come to me wild and wired
Wd hen you come to me
B Bb (ring)
Give me everything I need
GFive me a lifetime of promises and a world of dreams
Speak the language of love like you know what it means
od hh, it can't be wrong
TB ake my heart and make it stronger baby
C,C,C,NC (strum loudly)
Chorus
YFou're simply the best, better than all the rest
Bd etter than anyone, aC7nyone I've ever met
IF'm stuck on your heart, I hang on every word you say
Td ear us apart, baby C7I would rather be dead
Verse
IFn your heart I see the stars of every night and every day
In your eyes I get lost, I get washed away
Jd ust as long as I'm here in your arms
IB could be in no better place
C,C,C,NC
Chorus
You're simply the best, better than all the rest
Better than anyone, anyone I've ever met
I'm stuck on your heart, and hang on every word you say
Tear us apart, baby I would rather be dead
Bridge
B Each time you leave me I start losing control
Yd ou're walking away with my heart and my soul
B I can feel you even when I'm alone
C Oh baby, don't let Dgo
Key change to G
Sax solo: G,Em,D7
Chorus
YGou're the best, better than all the rest
Be etter than anyone, aD7nyone I've ever met
IG'm stuck on your heart, and hang on every word you say
Te ear us apart, baby D7I would rather be dead
G (ring)
Oh, You're the best...



Oceń to opracowanie
Ocena czytelników: Fatalny 1 głos
Kontrybucje:
3EYE
3EYE
anonim