0
0

Love Story Wilki



INTRO I ZWROTKA(LOAD GUITAR)
E-X-X-X-X-X-X-X-X-X-X-X-X-X-X-X-X-X-X-X-X-X-X-X-X
H-X-X-X-X-X-X-X-X-X-X-X-X-X-X-X-X-X-X-X-X-X-X-X-X
G-6-6-6-6-6-6-6-6-6-6-6-6-X-X-X-X-X-X-X-X-X-X-X-X
D-6-6-6-6-6-6-6-6-6-6-6-6-7-7-7-7-7-7-7-7-7-7-7-7
A-4-4-4-4-4-4-4-4-4-4-4-4-7-7-7-7-7-7-7-7-7-7-7-7
E-X-X-X-X-X-X-X-X-X-X-X-X-5-5-5-5-5-5-5-5-5-5-5-5
OVERLOAD GUITAR
E-4-------
H---7-4-2-
G--------- GRANE 4X
D---------
A---------
E---------

REFREN
E------------------------------------------------
[H------------------------------------------------]G-----------------------6-6-6-6-6-6-6-6-6-6-6-6-6
D-4-4-4-4-4-4-4-4-4-4-4-6-6-6-6-6-6-6-6-6-6-6-6-6
A-4-4-4-4-4-4-4-4-4-4-4-4-4-4-4-4-4-4-4-4-4-4-4-4
E-2-2-2-2-2-2-2-2-2-2-2-X-X-X-X-X-X-X-X-X-X-X-X-X
LUB
E------------------------------------------------
[H------------------------------------------------]G-11-11-11-11-11-11-11-11-11-6-6-6-6-6-6-6-6-6-6-
D-11-11-11-11-11-11-11-11-11-6-6-6-6-6-6-6-6-6-6-
A-9--9--9--9--9--9--9--9--9--4-4-4-4-4-4-4-4-4-4-
E-X-X-X-X-X-X-X-X-X-X-X-X-X-X-X-X-X-X-X-X-X-X-X-X


cis Po coA budować dom, w którym nie zamieszka miłość,
cis Po co przysięgi składać wciąż,
ASkoro nie można ich dotrzymać,
cis Tak właśnie jest z nami, czuję to w kościach,
AW zwykłym spojrzeniu, w braku zazdrości,
cis Zgubiłem obraz, gdy wychodziłem
AZ mojego domu, kiedy to było?



Ref.
fis To już koniec baby, skończyło się love story,
cis Jestem już zmęczony, wracam dziś do żony,
fis To już koniec baby, kłamiesz dla pieniędzy,
cis Jestem już zmęczony, wracam dziś do żony.



Pełne światynie w krąg, a wszyscy grzeszą, kradną, cudzołożą,

Pożegnać trzeba się, skoro nie można płynąć jedną łodzią,

Tak właśnie jest z nami, czuję to w kościach,

W braku szacunku, w braku czułości,

Wychodzę z domu, czuję że żyję,

Co się zdarzyło, kiedy to było?



Ref.

To już koniec baby, skończyło się love story,

Jestem już zmęczony, wracam dziś do żony,

To już koniec baby, kłamiesz dla pieniędzy,

Jestem już zmęczony, wracam dziś do żony. x3

(przed solo A A cis cis A A cis cis )

To już koniec baby! x5


Oceń to opracowanie
Ocena czytelników: Niczego sobie+ 15 głosów
Kontrybucje:
marcint1988
marcint1988
anonim
  • Marcin
    Wilk
    OVERLOAD GUITAR
    E-----------------
    H---9------------
    G-----11-9----- GRANE 4X
    D------------11-
    A----------------
    E---------------
    · Zgłoś · 4 lata temu
  • Marcin
    Taboretto
    Może ktoś podac taby do solówki?
    · Zgłoś · 6 lat temu