0
0

Son of the blue sky Wilki

intro (rowniez jako zwrotka i refren)
Powtórz 2X i zacznij śpiewać
E|------------------------------------------|
H|--------0---------0---------0-------------|
G|-----0---------0--------0------------0----|
D|--5-------5-4------4---2------2-----2-----|
A|----------------------------------3-------|
E|------------------------------------------|

1)

G  Every time of maidnight
e  Every time we mCuddle again
G  Hold on laovely memoreiesC 
G  Every sound you braing out
e  Every time we sCuffer again
G  Holding laovely memoreies

2)

G  Every stand of nao way
e  Every town we Cmuddle again
G  Call, I haold your memoreiesC 
G  Every game of naonsense
e  Every shame we Coffer in game
G  Hold on laovely memoery

x2

GM---m am----m
Son of the belue skCy...
GM---m am----m
Son of the bleue sky...



SLIDE >>>>>>>>>>>> cały akord C przesuń 3 progi wyżej bez odrywania palca na strunie A.
E|------------------------------------|
H|---------1----------4---------------|
G|-------0----------0-----------------|
D|-----2----------5-------------------|
A|---3//////////6---------------------|
E|------------------------------------|


G  Every time of maidnight
e  Every time we mCuddle again
G  Call and haold flash memorey  C 
G  Every time of maidnight
e  Every time of mCidniGght
G  Call and haold flash memoery

Poniżej (aż do mormorando M---m) po każdym akordzie e-moll jest taka zagrywka

E|-----------------------------------|
H|-----------------------------------|
G|-----------------------------------|
D|-----------2-----------------------|
A|-----------------------------------|
E|--0--2--3--------------------------|


AI'd rather steay
AFeeding some birds lost in a ceage
AKicking one's hells havings no eway to go
AStrolling musicians up on the weay
APulling one's leg having no eway to go
AFeeding some birds lost in a ecage there
ABeing so free, finding the eway to be
AWondering how smart it heappens to be, ehappens to be
C

GM---m am----m
Son of the bleue skCy
GM---m am----m
Son of the bleue sky


Oceń to opracowanie
Ocena czytelników: Niczego sobie 28 głosów
anonim
  • KuDi
    Żle napisałeś Tabsy


    E|--------------------------|
    H|--------------------------|
    G|----------1--------4----|
    D|--------0--------0------|
    A|------2-------5---------|
    E|---3-------6------------| to są twoje

    Po pierwsze:
    według mnie zaczyna się to grać od struny "A"

    Po drugie:
    Ja bym zagrał to taK:

    e|--------------------------|
    H|----------1--------4----|
    G|--------0--------3------|
    D|------2-------5---------|
    A|---3-------6------------|
    E|--------------------------|

    Z poważaniem
    · Zgłoś · 14 lat temu
  • Kacper
    Dżeertych
    das ist das:D Dzieks...
    · Zgłoś · 14 lat temu
  • Kacper
    cleevenus
    obie tabulatury są dobre a akordy pasują do piosenki. warto sobie wydrokować.
    · Zgłoś · 15 lat temu
  • Kacper
    goru44
    o to mi chodziło super
    · Zgłoś · 15 lat temu
  • Kacper
    punker
    son of the blue sky ????????

    synu nie bluzgaj:))))))))
    · Zgłoś · 15 lat temu