0
0

Na zawsze i na wieczność Wilki

Chwyty do zwrotki a G F a
do refrenu F a F a F E
intro
a G F a
|-5----|-3----|-1----|-5---------|
|--5---|--3---|--1---|-5---------|
|---5--|---4--|---2--|-5---------|
|----7-|----5-|----3-|-7-5/7-5/7-|
|------|------|------|-7-5/7-5/7-|
|------|------|------|-5-3/5-3/5-|
Był chyba maj, park na Grochowie, a G
W słoneczny dzień zobaczyłem Cię. F a
Tańczyłaś boso, byłaś jak natchniona, a G
A po chwili zaczął padać deszcz. F a

Nie wiedziałem, co się ze mną dzieje, a G
Wszystko znikło, byłaś tylko Ty. F a
Stałaś w tęczy, jak zaczarowana, a G
Świeciło słońce, a z nieba padał deszcz. F a

Ref.
Tyle samotnych dróg F a
Musiałem przejść bez Ciebie, F a
Tyle samotnych dróg F
Musiałem przejść by móc E
Odnaleźć Ciebie tu, a G F a
I wtedy padał deszcz.

Nasze oczy wreszcie się spotkały,
Jak odbicia zagubionych gwiazd.
Byłaś blisko, wszystko zrozumiałem,
Kto odejdzie, zawsze będzie sam.

Na zawsze i na wieczność, uczyńmy z życia święto,
By będąc tu przez chwilę, wszystko zapamiętać.
Nasza droga nigdy się nie skończy,
A kto odejdzie, zawsze będzie sam.

Ref.
Tyle samotnych dróg
Musiałem przejść bez Ciebie,
Tyle samotnych dróg
Musiałem przejść by móc
Odnaleźć Ciebie tu,
I wtedy padał deszcz..

Wtedy padał deszcz…


solo:(w tle akordy z refrenu ale bez E)
|-----------------------------------|
|-8-8-8-8-8h10p8-5-5-5-5h6p5--------|
|------------------------------5----|
|---------------------------------7-|
|-----------------------------------|
|-----------------------------------|

|-----------------------------------|
|-8-8-8-8-8h10p8-5-5-5-5h6p5--------|
|------------------------------5----|
|---------------------------------7-|
|-----------------------------------|
|-----------------------------------|


|-----------------------------------|
|-8-8-8-8-8h10h12—5-5-5-5h6p5-------|
|------------------------------5----|
|---------------------------------7-|
|-----------------------------------|
|-----------------------------------|

|------------|
|------------|
|------------|
|-5-5-7-9-7--|
|------------|
|------------|

Tyle samotnych dróg
Musiałem przejść bez Ciebie,
Tyle samotnych dróg
Musiałem przejść by móc
Odnaleźć Ciebie tu.


Oceń to opracowanie
Ocena czytelników: Niczego sobie 33 głosy
Kontrybucje:
marcint1988
marcint1988
anonim