0
0

Na zawsze i na wieczność Wilki

Chwyty do zwrotki a G F a
do refrenu F a F a F E
intro
a|-5----|-3----G|-1----|-5---F------|        a 
|--5---|--3---|--1---|-5---------|
|---5--|---4--|---2--|-5---------|
|----7-|----5-|----3-|-7-5/7-5/7-|
|------|------|------|-7-5/7-5/7-|
|------|------|------|-5-3/5-3/5-|


Był chyba amaj, park na GroGchowie,
W słoneczny Fdzień zobaczyłem aCię.
Tańczyłaś boso, byłaś jak natGchniona,
A po Fchwili zaczął padać adeszcz.
Nie wiedziałem, co się ze mną Gdzieje,


Wszystko Fznikło, byłaś tylko aTy.
Stałaś w tęczy, jak zaczaroGwana,
Świeciło Fsłońce, a z nieba padał adeszcz.


Ref.
Tyle saFmotnych adróg
Musiałem Fprzejść bez aCiebie,
Tyle saFmotnych adróg
Musiałem Fprzejść by Emóc
Odnaleźć Ciebie atu,G  F 
I wtedy padał adeszcz.


a G F a

Nasze oczy wreszcie się spotGkały,
Jak odFbicia zagubionych agwiazd.
Byłaś blisko, wszystko zrozuGmiałem,
Kto oFdejdzie, zawsze będzie asam.

Na zawsze i na wieczność, uczyńmy z życia Gświęto,
By będąc tu przez Fchwilę, wszystko zapaamiętać.
Nasza droga nigdy się nie sGkończy,
A kto oFdejdzie, zawsze będzie asam.


Ref.
Tyle saFmotnych adróg
Musiałem Fprzejść bez aCiebie,
Tyle saFmotnych adróg
Musiałem Fprzejść by Emóc
Odnaleźć Ciebie atu,G  F 
I wtedy padał adeszcz.


G F

Wtedy padał adeszcz…


solo:(w tle akordy z refrenu ale bez E)
|-----------------------------------|
|-8-8-8-8-8h10p8-5-5-5-5h6p5--------|
|------------------------------5----|
|---------------------------------7-|
|-----------------------------------|
|-----------------------------------|

|-----------------------------------|
|-8-8-8-8-8h10p8-5-5-5-5h6p5--------|
|------------------------------5----|
|---------------------------------7-|
|-----------------------------------|
|-----------------------------------|


|-----------------------------------|
|-8-8-8-8-8h10h12—5-5-5-5h6p5-------|
|------------------------------5----|
|---------------------------------7-|
|-----------------------------------|
|-----------------------------------|

|------------|
|------------|
|------------|
|-5-5-7-9-7--|
|------------|
|------------|

Ref.
Tyle saFmotnych adróg
Musiałem Fprzejść bez aCiebie,
Tyle saFmotnych adróg
Musiałem Fprzejść by Emóc
Odnaleźć Ciebie atu,

Oceń to opracowanie
Ocena czytelników: Niczego sobie+ 35 głosów
anonim