0
0

When I'm gone 3 Doors Down

a C G

There's another world inside of me
That you may never see
There's secrets in this life
That I can't hide
Somewhere in this darkness
There's a light that I can't find
Maybe it's too far away...
Maybe I'm just blind...
Maybe I'm just blind...
So hold me when I'm here
Right me when I'm wrong
Hold me when I'm scared
And love me when I'm gone
Everything I am
And everything in me
wants to be the one
You wanted me to be
I'll never let you down
Even if I could
I'd give up everything
If only for your good
So hold me when I'm here
Right me when I'm wrong
You can hold me when I'm scared
You won't always be there
So love me when I'm gone
Love me when I'm gone...
When your education x-ray
Can not see under my skin
I won't tell you a damn thing
That I could not tell my friends
Roaming through this darkness
I'm alive but I'm alone
Part of me is fighting this
But part of me is gone
So hold me when I'm here
Right me when I'm wrong
Hold me when I'm scared
And love me when I'm gone
Everything I am
And everything in me
wants to be the one
You wanted me to be
I'll never let you down
Even if I could
I'd give up everything
If only for your good
So hold me when I'm here
Right me when I'm wrong
You can hold me when I'm scared
You won't always be there
So love me when I'm gone
Maybe I'm just blind...
So hold me when I'm here
Right me when I'm wrong
Hold me when I'm scared
And love me when I'm gone
Everything I am
And everything in me
wants to be the one
You wanted me to be
I'll never let you down
Even if I could
I'd give up everything
If only for your good
So hold me when I'm here
Right me when I'm wrong
You can hold me when I'm scared
You won't always be there
So love me when I'm gone
Love me when I'm gone...
Love me when I'm gone
When I'm Gone
When I'm Gone
When I'm Gone


Intro
---------------------------------------------------------------------3----------------
-----------0h1-----------1p0-----0h1-------------0h1-----------------3----------------
---------2-------2-------------2-------------------------------------0----------------
-----2-------------2-----------------------------2-------------------0----------------
---0------------------------------------------3----------------------2----------------
----------------------------------------------------------------------3---------------
------------------------------------------------------------------------------------3--------
-------------0h1------------3-----------1-----------0h1--------------0h1------------3--------
---------2---------2------------2-----------2---------------------------------------0--------
------2---------------2-------------2----------2-------------------2----------------0--------
---0-------------------------------------------------------------3------------------2--------
------------------------------------------------------------------------------------3--------
Verse
----0------------------------------0----------3--------------------------------------
----1------------------------------1----------3--------------------------------------
----2------------------------------2----------0--------------------------------------
----2------------------------------0----------0--------------------------------------
----0-------------------------0h2--3----------2--------------------------------------
----------------------------------------------3--------------------------------------
x4

Prechorus (maybe im just blind)
-------------------------------------------------------------------------------------
-----------0h1---3----------------0h1----0-------------------------------------------
---------2--------------------2------------------------------------------------------
------2-------------------2----------------------------------------------------------
----0-----------------0--------------------------------------------------------------
-------------------------------------------------------------------------------------
Chorus
--------------------------------------------------------------------------------------
--------------------------------------------------------------------------------------
--------------4/5/4----------7--------------------------4/5/4-------------------------
-----7--------4/5/4----------7-------------5------------4/5/4-------------------------
-----7--------2/3/2----------5-------------5------------2/3/2-------------------------
-----5-------------------------------------3------------------------------------------
Little thingy after the chorus (love me when im gone)
--------------------------------------------------------------------------------------
--------------------------------------------------------------------------------------
--------------------------------------------------------------------------------------
-----7------------10-----------5------------------------------------------------------
-----7------------10-----------5------------------------------------------------------
-----5------------8------------3------------------------------------------------------
Verse

Chorus

Bridge
---------------------------------------------------------------------------------------
---------------------------------------------------------------------------------------
---------------------------------------------------------------------------------------
---------------5-----------10--------12-------13---------12----------------------------
---------------5-----------10--------12-------13---------12----------------------------
---------------7-----------8---------10-------11---------10----------------------------



Oceń to opracowanie
Kontrybucje:
Eileen
Eileen
anonim
  • Eileen
    można na 4 próbować, tego podstawowego (dół, dół, góra, góra, dół, góra), ale w odpowiednim tempie, powoli, żeby się wpasować w słowa, bo piosenka nie jest aż tak szybka, albo po swojemu coś kombinować, ;] ja osobiście proponuję wsłuchać się w piosenkę i usiłować się z nią zgrać, jak masz słuch dobry, to samo ładnie pójdzie ;ppp
    · Zgłoś · 12 lat temu
  • Za_pal_ki
    BŁAGAM O BICIA DO TEJ PIOSENKI|!!!!!!
    · Zgłoś · 13 lat temu