0
0

Send my love Adele

Tekst piosenki i chwyty na gitarę

  • Chwyty na gitarę floem
    2 ulubione
E|------------------------------------------|
B|------------------------------------------|
G|-----7---------------7--------------------|
D|---7---------------7----------------------|
A|-5-----5-0-------5-----5-0----------------|
E|-----------2---------------2--------------|

E|------------------------------------------|
B|------------------------------------------|
G|----------4-------------------4-----------|
D|---(hsus4)-4--------------(hsus4)-4-------------|
A|-2-----------2-0-----2----------2-0-------|
E|-----------------2------------------2-----|


D5 B5

D5 This was all you, none of it me

You put your hands
All over my body and tB5old me

You told me you were ready
D5 For the big one, for the big jump

I'd be your last love everlasting
YB5ou and me

That was what you told me
D5 I'm giving you up

I've forgiven it all
B5 You set me free


E|------------------------------------------|
B|-------3-3--------------------------------|
G|-------2-2--------------------------------|
D|-4--4--4-4--4-----------------------------|
A|-5--5-------5---5-0-----------------------|
E|-0------------------2---------------------|


E|------------------------------------------|
B|-------3-3--------------------------------|
G|-------4-4--------------------------------|
D|-4--4--4-4--4-----------------------------|
A|-2--2-------52--2-0-----------------------|
E|--------------------2---------------------|

SDend my love to your new lover

Treat her better
We've gb otta let go

of all of our ghosts

We both know we ain't kids no more
SDend my love to your new lover

Treat her better
We've gb otta let go

Of all of our ghosts

We both know we ain't kids no more


D5 I was too strong

You were trembling

You couldn't handle
The hot heat rB5ising (rising)

Baby, I'm so rising
D5 I was running, you were walking

You couldn't keep up
You were falling dB5own (down)

There's only one way down
D5 I'm giving you up

I've forgiven it all
B5 You set me free, oh

SDend my love to your new lover

Treat her better
We've gb otta let go

of all of our ghosts

We both know we ain't kids no more
SDend my love to your new lover

Treat her better
We've gb otta let go

Of all of our ghosts

We both know we ain't kids no more

D If you're ready, if you're ready

If you're ready, I am ready
b If you're ready, if you're ready

We both know we ain't kids no more
D5 No, we ain't kids no mB5ore

Repete a Primeira Parte:

D5 I'm giving you up

I've forgiven it all
B5 You set me free


SDend my love to your new lover

Treat her better
We've gb otta let go

of all of our ghosts

We both know we ain't kids no more
SDend my love to your new lover

Treat her better
We've gb otta let go

Of all of our ghosts

We both know we ain't kids no more
D If you're ready, if you're ready

If you're ready, I am ready
We've gb otta let go

of all of our ghosts

We both know we ain't kids no more
D If you're ready, if you're ready

If you're ready, I am ready
We've gb otta let go

of all of our ghosts

We both know we ain't kids no more

Oceń to opracowanie
Ocena czytelników: Dobry 1 głos
Kontrybucje:
floem
floem
anonim