0
0

Pieśń Gruzińska Bułat Okudżawa

Tekst piosenki i chwyty na gitarę

  • Chwyty na gitarę Początkujący
    7 ulubionych
Spulchnię aziemię na zboczu i pestkę winogron w niej dzłożę
A gdy G7winnym owocem gronowa obrodzi mi Cwić  E7  
Zwołam awiernych przyjaciół i serce przed nimi dotworzę...
Bo E7doprawdy - czyż warto inaczej na ziemi tej żayć?  E7  


Cóż, czym Cchata bogata! Darujcie, że progi za dniskie
Mówcie wG7prost, czy się godzi siąść przy mnie ucztować i Cpić  E7  
Pan Bóg agrzechy wybaczy i winy odpuści mi dwszystkie...
Bo dE7oprawdy - czyż warto inaczej na ziemi tej ażyć?  E7  


W czerni aswej i czerwieni zaśpiewa mi znów moja dDali
Runę w G7czerni i bieli do stóp jej, niech przędzie swą Cnić!  E7  
I o awszystkim zapomnę i umrę z miłości i dżalu...
Bo dE7oprawdy - czyż warto inaczej na ziemi tej ażyć?  E7  


A gdy zamierzch się zakłębi i cienie po kątach się dsplotą
Niech się G7cisną do oczu, niech wiecznie pozwolą mi Cśnić  E7  
Płowy abawół i orzeł srebrzysty i pstrąg szczerdozłoty...
Bo dE7oprawdy - czyż warto inaczej na ziemi tej ażyć?  E7  

Oceń to opracowanie
Ocena czytelników: Dobry 40 głosów
anonim
  • Marcin
    Hana
    KochamGo
    · Zgłoś · 4 lata temu
  • Marcin
    Zbyszek
    Co tu dodawać i mówić ? Przecież to MISTRZ OKUDŻAWA
    · Zgłoś · 4 lata temu
  • Marcin
    Koleżanka
    Am Dm
    e--0-----------------1-----3-----1-------
    h|-------1-----------1---------3---3-----3-----3-----
    g|-----2---2-----2-----2-----2-------2-----2-----2---
    d|---2-------2-----2-----2-0-------------------------
    a|-0-------------------------------------------------
    E----------------------------------------

    G7 C E
    e--1-----------------------------0-------
    h|-------0-----------0-----------1---------0---0-----
    g|-----0---0-----0-----0-------0---0-----1-------1---
    d|---0-------0-----0-----0---2-------2---------------
    a--------------3-------------------------
    E|-3-----------------------------------0-------------





    Am Dm
    Spulchnię ziemię na zboczu i pestkę winogron w niej złożę
    G7 C E
    A gdy winnym owocem gronowa obrodzi mi wić
    Am Dm
    Zwołam wiernych przyjaciół i serce przed nimi otworzę...
    E7 Am
    Bo doprawdy - czyż warto inaczej na ziemi tej żyć?


    С Dm
    Cóż, czym chata bogata! Darujcie, że progi za niskie
    G7 C E
    Mówcie wprost, czy się godzi Siąść przy mnie, ucztować i pić
    Am Dm
    Pan Bóg grzechy wybaczy I winy odpuści mi wszystkie...
    E7 Am
    Bo doprawdy - czyż warto inaczej na ziemi tej żyć?


    Am Dm
    W czerni swej i czerwieni zaśpiewa mi znów moja Dali
    G7 C E
    Runę w czerni i bieli do stóp jej Niech przędzie swą nić!
    Am Dm
    I o wszystkim zapomnę I umrę z miłości i żalu...
    E7 Am
    Bo doprawdy - czyż warto inaczej na ziemi tej żyć?


    С Dm
    A gdy zmierzch się zakłębi I cienie po kątach się splotą
    G7 C E
    Niech się cisną do oczu, niech wiecznie pozwolą mi śnić
    Am Dm
    Płowy bawół I orzeł srebrzysty, I pstrąg szczerozłoty...
    E7 Am
    Bo doprawdy - czyż warto inaczej na ziemi tej żyć?
    · Zgłoś · 4 lata temu