A Fistful Of Ice Cream Dire Straits

Tekst piosenki

  • Tekst piosenki Punko
Title : A FISTFUL OF ICE CREAM
Author : Mark Knopfler
Date : 03/84
Copyright : Straitjacket Songs Ltd.
Rondor Music (London) Ltd.
(P) 1984 Phonogram Ltd. (London)
Tablature : Fabrice.Bellet@imag.fr (10/23/95)

00:30
01:05
----------------------------------------------------------------|-----5-7-----
0-8-5-7--7-5-7-8-5--3-12-8-10--10-8-10-12-8----------10-7-7-8-5-|-7-8---------
------------------------------------------------12-9------------|-------------
----------------------------------------------9-----------------|-------------
----------------------------------------------------------------|-------------
----------------------------------------------------------------|-------------

01:27
7-10---------------------12--------------------------------------------|------
-----10-----------12-13-----12--12----------12--12-13-----12-----13----|------
---------14-13-14------------------14-12-14-----------14-----12-----11-|------
-----------------------------------------------------------------------|------
-----------------------------------------------------------------------|------
-----------------------------------------------------------------------|------

01:45
------------14-12-----------------------|----------------14-11----------------
12-12-11-12-------12--12-13-12----------|-12-13-12-11-12-------12--12-13-12---
-------------------------------14-12-11-|-----------------------------------14
----------------------------------------|-------------------------------------
----------------------------------------|-------------------------------------
----------------------------------------|-------------------------------------

01:55 02:08
---------|----------------14-12-----------------------|----------------14-11--
------12-|-12-13-12-11-12-------12--12-13-12----------|-12-13-12-11-12--------
12-14----|-----------------------------------14-12-11-|-----------------------
---------|--------------------------------------------|-----------------------
---------|--------------------------------------------|-----------------------
---------|--------------------------------------------|-----------------------

02:19
-------------------------------|--------------------15-17-15----------15--14--
12--12-13-12-13-12----------12-|-17-17-17-16-17--------------17----15---------
-------------------14-12-14----|----------------17--------------18------------
-------------------------------|----------------------------------------------
-------------------------------|----------------------------------------------
-------------------------------|----------------------------------------------

02:38
15-17-15----14--------14----------|-15-15-15-14-15-----14-15-17-15----------15
---------17-----15-17----17-15----|----------------17--------------17-14-15---
-------------------------------16-|-------------------------------------------
----------------------------------|-------------------------------------------
----------------------------------|-------------------------------------------
----------------------------------|-------------------------------------------

03:07
14-15-17-15----14--------14-15-17-15-----------|------------------------------
------------17-----15-17-------------[-15-16-]-|------------------------------
-----------------------------------------------|------------------------------
-----------------------------------------------|------------------------------
-----------------------------------------------|------------------------------
-----------------------------------------------|------------------------------

03:43
04:17
--------------------------------------------------------------------|----------
0-8-5-7--7-5-7-8-5--3-12-8-10--10-8-10-12-8--------------10-7-7-8-5-|----------
----------------------------------------------------12-9------------|----12-9--
----------------------------------------------[-9-]-----------------|----------
--------------------------------------------------------------------|-12-------
--------------------------------------------------------------------|----------

-------------7-5---------------------------------------------------------------
10--7-7-8-5------8-7-5---------------------------------------------------------
-------------------------------------------------------------------------------
-------------------------------------------------------------------------------
-------------------------------------------------------------------------------
-------------------------------------------------------------------------------


Oceń to opracowanie
Kontrybucje:
Punko
Punko
anonim