Brothers in arms (intro) Dire Straits

Tekst piosenki

  • Tekst piosenki Jarkosz
    1 ulubiony
--------------------------------------------------------------------------------------------------------------------------
-----------------------------------------------------------------------------------------------4-------------------------
------------------------------------------------3---4---6---4---3-----------------------4-----6v---------------------
------------6---8---6--------6>8>6----------------------------------6>4>6---------------------------------------
-----4>6----------------------------------------------------------------------------------------------------------------
-------------------------------------------------------------------------------------------------------------------------


-------------------------------------------------------------------------------------------------------------------------
-----1>4---------------------------------------------------------------------------------------4v--------------------
-------------6---4---3--------------------------------4---3----------------------------------------------------------
----------------------------6---4----6>8>6v---------------------6v-----------6-6v-------------------------------
------------------------------------------------------------------------------6-----------------------------------------
-------------------------------------------------------------------------------------------------------------------------


Oceń to opracowanie
Ocena czytelników: Doskonały 2 głosy
Kontrybucje:
Jarkosz
Jarkosz
anonim