Darling Pretty Dire Straits

Tekst piosenki

  • Tekst piosenki Punko
DARLING PRETTY
Mark Knopfler 1996

First solo at 1:30 -- 1:52

1:30 1:39
|--------------------------------------------------|--------------------------
|-10-9----------------------10-12-10-9------9------|--------------------10-9--
|9----11-9-11--9s11-9--9---9------------11-9-11-11-|-9-11b13b11---9-11-9------
|--------------------11----------------------------|--------------------------
|--------------------------------------------------|--------------------------
|--------------------------------------------------|--------------------------

1:46 1:50 1:52
----------------------|--------------------|----------|
----------------------|--------------------|----------|
-11-9-11--9s11-9----9-|-------9------------|-10s11-13-|
-----------------11---|----11---11-9-------|-11s12-14-|
----------------------|-12-----------12-12-|----------|
----------------------|--------------------|----------|

Second solo at 2:30 -- 2:51

2:30 2:37
|-----------------------------|-----------------------------------------------
|----10-9---------------------|-12s14-12-10----12-10----------------9----9-10-
|---9----11--9-11-9-11-9----9-|-------------13-------13-11-11--9-11---11------
|-11---------------------11---|-----------------------------------------------
|-----------------------------|-----------------------------------------------
|-----------------------------|-----------------------------------------------

2:47 2:51
----------------------------|-------------------------------|
12-10-9---------------------|-------------------------------|
--------11-9-11--11-9----9--|-------------9-11--------------|
----------------------11----|----------11------9----9-------|
----------------------------|-12-11-12-----------12---12-12-|
----------------------------|-------------------------------|

Final solo at 3:23 -- End

3:23 3:32
|----------------------------------------------------|-------------------------
|--------------14------------------------------------|-------------------------
|14-14----14-16--16-14--14-13-13--14-13-----13-14-13-|----16b18b18-16-14-16-14-
|-------16------------------------------16-----------|-14----------------------
|----------------------------------------------------|-------------------------
|----------------------------------------------------|-------------------------

3:39
--------------------------------------------|----------------------------------
--------------------------------------------|----------------14----------------
-14--14s16-14-13-14-13----------------------|----------14-16----16-14-16-14-14-
------------------------14s16--14s16--14-14-|----14-16-------------------------
--------------------------------------------|-16-------------------------------
--------------------------------------------|----------------------------------

3:42
|------------------------------------------------------------------------------
|------14-----------------------14------------14-14-15-14----------------15-17-
|-14-16--16-14--16-14-----14-16----16-14--16--------------16-14-14----14-------
|----------------------16------------------------------------------16----------
|------------------------------------------------------------------------------
|------------------------------------------------------------------------------

3:52
---------|-------------------14----14-16-14-----------14-14-17-14----14-14-----
-15-14---|14-17-14--------17----15----------17--14-17-------------14-------17--
-------16|---------16-14-------------------------------------------------------
---------|---------------------------------------------------------------------
---------|---------------------------------------------------------------------
---------|---------------------------------------------------------------------

4:03
----------------|--------------------------------------------------------------
-15-14-15-17----|----14-14-14--------15 14----14----------14--14-----------15--
-------------14-|-16-----------16-14-------16----16-14-16--------16--14--------
----------------|-------------------------------------------------------16-----
----------------|--------------------------------------------------------------
----------------|--------------------------------------------------------------

4:13 4:18
-------------|------------------------------------|----------14-14-------------
-17-15-14----|-14-17-17-17-17--15-14-15-----15-14-|-------14-------17-14-------
----------16-|---------------------------16-------|-14h16---------------16-----
-------------|------------------------------------|----------------------------
-------------|------------------------------------|----------------------------
-------------|------------------------------------|----------------------------

4:25
---------------------------------------------------|
-14---------------------------14-------------------|
----16-14-------16----14---16----16-14----16----14-|
----------16-14----16------------------16----16----|
---------------------------------------------------|
---------------------------------------------------|

b : string bending
s : string sliding
h : hammering
p : pull off


Oceń to opracowanie
Kontrybucje:
Punko
Punko
anonim